ISO-10303-21;
HEADER;
FILE_DESCRIPTION (( 'STEP AP203' ),
    '1' );
FILE_NAME ('327014.step',
    '2021-12-01T10:40:17',
    ( '' ),
    ( '' ),
    'SwSTEP 2.0',
    'SolidWorks 2019',
    '' );
FILE_SCHEMA (( 'CONFIG_CONTROL_DESIGN' ));
ENDSEC;

DATA;
#1 = CC_DESIGN_PERSON_AND_ORGANIZATION_ASSIGNMENT ( #116, #205, ( #31 ) ) ;
#2 = CC_DESIGN_DATE_AND_TIME_ASSIGNMENT ( #160, #3, ( #218 ) ) ;
#3 = DATE_TIME_ROLE ( 'classification_date' ) ;
#4 = CIRCLE ( 'NONE', #72, 0.5799999999999999600 ) ;
#5 = EDGE_LOOP ( 'NONE', ( #142 ) ) ;
#6 = EDGE_CURVE ( 'NONE', #300, #300, #208, .T. ) ;
#7 = FACE_OUTER_BOUND ( 'NONE', #52, .T. ) ;
#8 = LOCAL_TIME ( 11, 40, 17.00000000000000000, #201 ) ;
#9 = DIRECTION ( 'NONE',  ( 3.491481338843133355E-15, -1.224646799147353207E-16, 1.000000000000000000 ) ) ;
#10 = DIRECTION ( 'NONE',  ( 3.491481338843133355E-15, -1.224646799147353207E-16, 1.000000000000000000 ) ) ;
#11 = ORIENTED_EDGE ( 'NONE', *, *, #187, .T. ) ;
#12 = AXIS2_PLACEMENT_3D ( 'NONE', #104, #197, #21 ) ;
#13 = FACE_BOUND ( 'NONE', #49, .T. ) ;
#14 = CARTESIAN_POINT ( 'NONE',  ( 1.326762908760390423E-13, -4.653657836759941941E-15, 38.00000000000000000 ) ) ;
#15 = PLANE ( 'NONE',  #159 ) ;
#16 = CIRCLE ( 'NONE', #12, 0.5799999999999999600 ) ;
#17 = CARTESIAN_POINT ( 'NONE',  ( 8.728703347107833388E-16, 0.5799999999999994049, 0.2500000000000000000 ) ) ;
#18 = DATE_AND_TIME ( #140, #47 ) ;
#19 = CARTESIAN_POINT ( 'NONE',  ( -1.877777477964442645E-31, 6.586356777327349187E-33, -5.378168449803672555E-17 ) ) ;
#20 = DATE_AND_TIME ( #154, #8 ) ;
#21 = DIRECTION ( 'NONE',  ( 0.0000000000000000000, 1.000000000000000000, 0.0000000000000000000 ) ) ;
#22 = CARTESIAN_POINT ( 'NONE',  ( 0.0000000000000000000, 0.0000000000000000000, 0.0000000000000000000 ) ) ;
#23 = EDGE_LOOP ( 'NONE', ( #287 ) ) ;
#24 = PERSON_AND_ORGANIZATION ( #203, #186 ) ;
#25 = APPROVAL ( #181, 'UNSPECIFIED' ) ;
#26 = SHAPE_DEFINITION_REPRESENTATION ( #288, #35 ) ;
#27 = APPLICATION_PROTOCOL_DEFINITION ( 'international standard', 'config_control_design', 1994, #234 ) ;
#28 = AXIS2_PLACEMENT_3D ( 'NONE', #149, #241, #274 ) ;
#29 = ORIENTED_EDGE ( 'NONE', *, *, #194, .T. ) ;
#30 = DIRECTION ( 'NONE',  ( 4.275831445896958607E-31, 1.000000000000000000, 1.224646799147353207E-16 ) ) ;
#31 = PRODUCT ( '327014', '327014', '', ( #228 ) ) ;
#32 = DIRECTION ( 'NONE',  ( 4.275831445896958607E-31, 1.000000000000000000, 1.224646799147353207E-16 ) ) ;
#33 = AXIS2_PLACEMENT_3D ( 'NONE', #55, #127, #238 ) ;
#34 = CC_DESIGN_PERSON_AND_ORGANIZATION_ASSIGNMENT ( #180, #283, ( #170 ) ) ;
#35 = ADVANCED_BREP_SHAPE_REPRESENTATION ( '327014', ( #171, #74, #60 ), #226 ) ;
#36 = EDGE_LOOP ( 'NONE', ( #183 ) ) ;
#37 = CARTESIAN_POINT ( 'NONE',  ( -3.755554955928885289E-31, 1.317271355465469837E-32, -1.075633689960734511E-16 ) ) ;
#38 = AXIS2_PLACEMENT_3D ( 'NONE', #19, #278, #263 ) ;
#39 = CARTESIAN_POINT ( 'NONE',  ( 1.326762908760390423E-13, -4.653657836759941941E-15, 38.00000000000000000 ) ) ;
#40 = DIRECTION ( 'NONE',  ( 4.275831445896958607E-31, 1.000000000000000000, 1.224646799147353207E-16 ) ) ;
#41 = CARTESIAN_POINT ( 'NONE',  ( -1.892735826383161575E-31, 0.4356624327025950816, -5.421010862427522170E-17 ) ) ;
#42 = AXIS2_PLACEMENT_3D ( 'NONE', #22, #200, #32 ) ;
#43 = CALENDAR_DATE ( 2021, 1, 12 ) ;
#44 = COORDINATED_UNIVERSAL_TIME_OFFSET ( 1, 0, .AHEAD. ) ;
#45 = PERSON_AND_ORGANIZATION_ROLE ( 'creator' ) ;
#46 = CLOSED_SHELL ( 'NONE', ( #136, #240, #156, #255 ) ) ;
#47 = LOCAL_TIME ( 11, 40, 17.00000000000000000, #44 ) ;
#48 = ORIENTED_EDGE ( 'NONE', *, *, #184, .T. ) ;
#49 = EDGE_LOOP ( 'NONE', ( #77 ) ) ;
#50 = AXIS2_PLACEMENT_3D ( 'NONE', #14, #167, #189 ) ;
#51 = APPROVAL_ROLE ( '' ) ;
#52 = EDGE_LOOP ( 'NONE', ( #239 ) ) ;
#53 = ADVANCED_FACE ( 'NONE', ( #7, #185 ), #295, .T. ) ;
#54 = CC_DESIGN_DATE_AND_TIME_ASSIGNMENT ( #20, #198, ( #151 ) ) ;
#55 = CARTESIAN_POINT ( 'NONE',  ( 1.326762908760390423E-13, 8.998558695971103225E-33, 38.00000000000000000 ) ) ;
#56 = AXIS2_PLACEMENT_3D ( 'NONE', #296, #235, #211 ) ;
#57 = DIRECTION ( 'NONE',  ( -3.491481338843133355E-15, 1.224646799147353207E-16, -1.000000000000000000 ) ) ;
#58 = ORIENTED_EDGE ( 'NONE', *, *, #101, .T. ) ;
#59 = VERTEX_POINT ( 'NONE', #279 ) ;
#60 = AXIS2_PLACEMENT_3D ( 'NONE', #231, #73, #162 ) ;
#61 = DIRECTION ( 'NONE',  ( 3.491481338843133355E-15, -1.224646799147353207E-16, 1.000000000000000000 ) ) ;
#62 = FACE_OUTER_BOUND ( 'NONE', #148, .T. ) ;
#63 = DIRECTION ( 'NONE',  ( -3.491481338843133355E-15, 1.224646799147353207E-16, -1.000000000000000000 ) ) ;
#64 = CC_DESIGN_PERSON_AND_ORGANIZATION_ASSIGNMENT ( #202, #195, ( #218 ) ) ;
#65 = ADVANCED_FACE ( 'NONE', ( #13, #269 ), #299, .T. ) ;
#66 = DIRECTION ( 'NONE',  ( 0.0000000000000000000, 1.000000000000000000, 0.0000000000000000000 ) ) ;
#67 = CIRCLE ( 'NONE', #303, 1.499999999999997558 ) ;
#68 = PERSON_AND_ORGANIZATION ( #203, #186 ) ;
#69 = ORIENTED_EDGE ( 'NONE', *, *, #184, .F. ) ;
#70 = DATE_AND_TIME ( #261, #139 ) ;
#71 = CLOSED_SHELL ( 'NONE', ( #82, #150, #260, #259, #65, #53, #93, #193 ) ) ;
#72 = AXIS2_PLACEMENT_3D ( 'NONE', #292, #57, #99 ) ;
#73 = DIRECTION ( 'NONE',  ( 0.0000000000000000000, 0.0000000000000000000, 1.000000000000000000 ) ) ;
#74 = MANIFOLD_SOLID_BREP ( 'Corps-Déplacer/Copier1[2]', #46 ) ;
#75 = TOROIDAL_SURFACE ( 'NONE', #285, 2.479999999999999982, 2.000000000000000000 ) ;
#76 = FACE_OUTER_BOUND ( 'NONE', #225, .T. ) ;
#77 = ORIENTED_EDGE ( 'NONE', *, *, #245, .F. ) ;
#78 = FACE_BOUND ( 'NONE', #98, .T. ) ;
#79 = FACE_BOUND ( 'NONE', #23, .T. ) ;
#80 = CONICAL_SURFACE ( 'NONE', #155, 0.4799999999999991496, 0.5235987755982927094 ) ;
#81 = LOCAL_TIME ( 11, 40, 17.00000000000000000, #87 ) ;
#82 = ADVANCED_FACE ( 'NONE', ( #215 ), #15, .F. ) ;
#83 = CARTESIAN_POINT ( 'NONE',  ( 4.189777606611760026E-14, -1.469576158976823947E-15, 12.00000000000000000 ) ) ;
#84 = CARTESIAN_POINT ( 'NONE',  ( 4.189777606611760026E-14, 0.4799999999999986500, 12.00000000000000000 ) ) ;
#85 = DIRECTION ( 'NONE',  ( 3.491481338843133355E-15, -1.224646799147353207E-16, 1.000000000000000000 ) ) ;
#86 = VERTEX_POINT ( 'NONE', #174 ) ;
#87 = COORDINATED_UNIVERSAL_TIME_OFFSET ( 1, 0, .AHEAD. ) ;
#88 = FACE_OUTER_BOUND ( 'NONE', #229, .T. ) ;
#89 = PERSON_AND_ORGANIZATION ( #203, #186 ) ;
#90 = EDGE_LOOP ( 'NONE', ( #141 ) ) ;
#91 = AXIS2_PLACEMENT_3D ( 'NONE', #244, #63, #247 ) ;
#92 = EDGE_CURVE ( 'NONE', #216, #216, #165, .T. ) ;
#93 = ADVANCED_FACE ( 'NONE', ( #249, #78 ), #147, .T. ) ;
#94 = APPROVAL_STATUS ( 'not_yet_approved' ) ;
#95 = AXIS2_PLACEMENT_3D ( 'NONE', #291, #236, #152 ) ;
#96 = DIRECTION ( 'NONE',  ( -3.320568869633168828E-31, -1.000000000000000000, -9.346570452461255152E-17 ) ) ;
#97 = ORIENTED_EDGE ( 'NONE', *, *, #199, .T. ) ;
#98 = EDGE_LOOP ( 'NONE', ( #48 ) ) ;
#99 = DIRECTION ( 'NONE',  ( 0.0000000000000000000, 1.000000000000000000, 0.0000000000000000000 ) ) ;
#100 = CONICAL_SURFACE ( 'NONE', #213, 0.5799999999999994049, 0.5235987755982922653 ) ;
#101 = EDGE_CURVE ( 'NONE', #107, #107, #204, .T. ) ;
#102 = CARTESIAN_POINT ( 'NONE',  ( 8.728703347107831416E-16, -3.061616997868382402E-17, 0.2499999999999999445 ) ) ;
#103 = CARTESIAN_POINT ( 'NONE',  ( 1.745740669421566678E-14, 4.349303369719377757E-33, 5.000000000000000000 ) ) ;
#104 = CARTESIAN_POINT ( 'NONE',  ( 1.745740669421566678E-14, -6.123233995736766282E-16, 5.000000000000000000 ) ) ;
#105 = CYLINDRICAL_SURFACE ( 'NONE', #91, 0.4799999999999996492 ) ;
#106 = CC_DESIGN_PERSON_AND_ORGANIZATION_ASSIGNMENT ( #89, #115, ( #170 ) ) ;
#107 = VERTEX_POINT ( 'NONE', #84 ) ;
#108 = APPROVAL_ROLE ( '' ) ;
#109 = DESIGN_CONTEXT ( 'detailed design', #128, 'design' ) ;
#110 = VERTEX_POINT ( 'NONE', #301 ) ;
#111 = DIRECTION ( 'NONE',  ( 0.0000000000000000000, 1.000000000000000000, 0.0000000000000000000 ) ) ;
#112 = CARTESIAN_POINT ( 'NONE',  ( 6.270590427156641191E-14, 1.499999999999995559, 17.95968478306213001 ) ) ;
#113 = APPROVAL_DATE_TIME ( #70, #178 ) ;
#114 = DATE_AND_TIME ( #43, #252 ) ;
#115 = PERSON_AND_ORGANIZATION_ROLE ( 'design_supplier' ) ;
#116 = PERSON_AND_ORGANIZATION ( #203, #186 ) ;
#117 = ORIENTED_EDGE ( 'NONE', *, *, #245, .T. ) ;
#118 = AXIS2_PLACEMENT_3D ( 'NONE', #102, #130, #217 ) ;
#119 = EDGE_LOOP ( 'NONE', ( #254 ) ) ;
#120 = AXIS2_PLACEMENT_3D ( 'NONE', #37, #144, #30 ) ;
#121 = CC_DESIGN_APPROVAL ( #25, ( #218 ) ) ;
#122 = DIRECTION ( 'NONE',  ( -3.491481338843133355E-15, 1.224646799147353207E-16, -1.000000000000000000 ) ) ;
#123 = EDGE_LOOP ( 'NONE', ( #11 ) ) ;
#124 = DIRECTION ( 'NONE',  ( -3.491481338843133355E-15, 1.224646799147353207E-16, -1.000000000000000000 ) ) ;
#125 = CARTESIAN_POINT ( 'NONE',  ( 4.189777606611760026E-14, -1.301042606982605321E-15, 12.00000000000000000 ) ) ;
#126 = PLANE ( 'NONE',  #38 ) ;
#127 = DIRECTION ( 'NONE',  ( -3.491481338843133355E-15, 1.224646799147353207E-16, -1.000000000000000000 ) ) ;
#128 = APPLICATION_CONTEXT ( 'configuration controlled 3d designs of mechanical parts and assemblies' ) ;
#129 = PLANE ( 'NONE',  #280 ) ;
#130 = DIRECTION ( 'NONE',  ( -3.491481338843133355E-15, 1.224646799147353207E-16, -1.000000000000000000 ) ) ;
#131 = CC_DESIGN_SECURITY_CLASSIFICATION ( #218, ( #170 ) ) ;
#132 = FACE_OUTER_BOUND ( 'NONE', #237, .T. ) ;
#133 = VERTEX_POINT ( 'NONE', #221 ) ;
#134 = APPROVAL_ROLE ( '' ) ;
#135 = VERTEX_POINT ( 'NONE', #168 ) ;
#136 = ADVANCED_FACE ( 'NONE', ( #132 ), #126, .F. ) ;
#137 = EDGE_LOOP ( 'NONE', ( #58 ) ) ;
#138 = CALENDAR_DATE ( 2021, 1, 12 ) ;
#139 = LOCAL_TIME ( 11, 40, 17.00000000000000000, #232 ) ;
#140 = CALENDAR_DATE ( 2021, 1, 12 ) ;
#141 = ORIENTED_EDGE ( 'NONE', *, *, #92, .T. ) ;
#142 = ORIENTED_EDGE ( 'NONE', *, *, #92, .F. ) ;
#143 = ORIENTED_EDGE ( 'NONE', *, *, #298, .T. ) ;
#144 = DIRECTION ( 'NONE',  ( -3.491481338843133355E-15, 1.224646799147353207E-16, -1.000000000000000000 ) ) ;
#145 = FACE_OUTER_BOUND ( 'NONE', #119, .T. ) ;
#146 = CARTESIAN_POINT ( 'NONE',  ( 1.806214900147117080E-14, -6.335349043481752448E-16, 5.173205080756892116 ) ) ;
#147 = CONICAL_SURFACE ( 'NONE', #176, 1.200000000000003286, 0.7853981633974453924 ) ;
#148 = EDGE_LOOP ( 'NONE', ( #157 ) ) ;
#149 = CARTESIAN_POINT ( 'NONE',  ( 0.0000000000000000000, 0.0000000000000000000, 0.0000000000000000000 ) ) ;
#150 = ADVANCED_FACE ( 'NONE', ( #88, #289 ), #80, .T. ) ;
#151 = PRODUCT_DEFINITION ( 'UNKNOWN', '', #170, #109 ) ;
#152 = DIRECTION ( 'NONE',  ( 0.0000000000000000000, 1.000000000000000000, 0.0000000000000000000 ) ) ;
#153 = DIRECTION ( 'NONE',  ( 0.0000000000000000000, -1.000000000000000000, 0.0000000000000000000 ) ) ;
#154 = CALENDAR_DATE ( 2021, 1, 12 ) ;
#155 = AXIS2_PLACEMENT_3D ( 'NONE', #163, #222, #111 ) ;
#156 = ADVANCED_FACE ( 'NONE', ( #177, #250 ), #224, .T. ) ;
#157 = ORIENTED_EDGE ( 'NONE', *, *, #187, .F. ) ;
#158 = APPROVAL_STATUS ( 'not_yet_approved' ) ;
#159 = AXIS2_PLACEMENT_3D ( 'NONE', #103, #85, #246 ) ;
#160 = DATE_AND_TIME ( #138, #81 ) ;
#161 = ORIENTED_EDGE ( 'NONE', *, *, #101, .F. ) ;
#162 = DIRECTION ( 'NONE',  ( 1.000000000000000000, 0.0000000000000000000, 0.0000000000000000000 ) ) ;
#163 = CARTESIAN_POINT ( 'NONE',  ( 1.806214900147117080E-14, -6.335349043481752448E-16, 5.173205080756892116 ) ) ;
#164 = FACE_OUTER_BOUND ( 'NONE', #282, .T. ) ;
#165 = CIRCLE ( 'NONE', #118, 0.5799999999999994049 ) ;
#166 = EDGE_LOOP ( 'NONE', ( #29 ) ) ;
#167 = DIRECTION ( 'NONE',  ( -3.491481338843133355E-15, 1.224646799147353207E-16, -1.000000000000000000 ) ) ;
#168 = CARTESIAN_POINT ( 'NONE',  ( 4.311035480981395782E-14, 0.5103844939755798338, 12.34729635533384595 ) ) ;
#169 = FACE_OUTER_BOUND ( 'NONE', #90, .T. ) ;
#170 = PRODUCT_DEFINITION_FORMATION_WITH_SPECIFIED_SOURCE ( 'ANY', '', #31, .NOT_KNOWN. ) ;
#171 = MANIFOLD_SOLID_BREP ( 'Corps-Déplacer/Copier1[1]', #71 ) ;
#172 = VERTEX_POINT ( 'NONE', #277 ) ;
#173 = DIRECTION ( 'NONE',  ( 0.0000000000000000000, 1.000000000000000000, 0.0000000000000000000 ) ) ;
#174 = CARTESIAN_POINT ( 'NONE',  ( 1.316288464743861212E-13, 1.499999999999998668, 37.69999999999999574 ) ) ;
#175 = APPROVAL_DATE_TIME ( #18, #209 ) ;
#176 = AXIS2_PLACEMENT_3D ( 'NONE', #39, #220, #173 ) ;
#177 = FACE_OUTER_BOUND ( 'NONE', #5, .T. ) ;
#178 = APPROVAL ( #94, 'UNSPECIFIED' ) ;
#179 = CC_DESIGN_PERSON_AND_ORGANIZATION_ASSIGNMENT ( #24, #45, ( #151 ) ) ;
#180 = PERSON_AND_ORGANIZATION ( #203, #186 ) ;
#181 = APPROVAL_STATUS ( 'not_yet_approved' ) ;
#182 = CC_DESIGN_APPROVAL ( #209, ( #170 ) ) ;
#183 = ORIENTED_EDGE ( 'NONE', *, *, #233, .F. ) ;
#184 = EDGE_CURVE ( 'NONE', #172, #172, #258, .T. ) ;
#185 = FACE_OUTER_BOUND ( 'NONE', #262, .T. ) ;
#186 = ORGANIZATION ( 'UNSPECIFIED', 'UNSPECIFIED', '' ) ;
#187 = EDGE_CURVE ( 'NONE', #133, #133, #4, .T. ) ;
#188 = AXIS2_PLACEMENT_3D ( 'NONE', #83, #276, #66 ) ;
#189 = DIRECTION ( 'NONE',  ( 0.0000000000000000000, 1.000000000000000000, 0.0000000000000000000 ) ) ;
#190 = FACE_OUTER_BOUND ( 'NONE', #137, .T. ) ;
#191 = DIRECTION ( 'NONE',  ( 0.0000000000000000000, 1.000000000000000000, 0.0000000000000000000 ) ) ;
#192 = CC_DESIGN_APPROVAL ( #178, ( #151 ) ) ;
#193 = ADVANCED_FACE ( 'NONE', ( #294 ), #212, .F. ) ;
#194 = EDGE_CURVE ( 'NONE', #110, #110, #248, .T. ) ;
#195 = PERSON_AND_ORGANIZATION_ROLE ( 'classification_officer' ) ;
#196 = COORDINATED_UNIVERSAL_TIME_OFFSET ( 1, 0, .AHEAD. ) ;
#197 = DIRECTION ( 'NONE',  ( -3.491481338843133355E-15, 1.224646799147353207E-16, -1.000000000000000000 ) ) ;
#198 = DATE_TIME_ROLE ( 'creation_date' ) ;
#199 = EDGE_CURVE ( 'NONE', #302, #302, #67, .T. ) ;
#200 = DIRECTION ( 'NONE',  ( -3.491481338843133355E-15, 1.224646799147353207E-16, -1.000000000000000000 ) ) ;
#201 = COORDINATED_UNIVERSAL_TIME_OFFSET ( 1, 0, .AHEAD. ) ;
#202 = PERSON_AND_ORGANIZATION ( #203, #186 ) ;
#203 = PERSON ( 'UNSPECIFIED', 'UNSPECIFIED', 'UNSPECIFIED', ('UNSPECIFIED'), ('UNSPECIFIED'), ('UNSPECIFIED') ) ;
#204 = CIRCLE ( 'NONE', #188, 0.4800000000000000933 ) ;
#205 = PERSON_AND_ORGANIZATION_ROLE ( 'design_owner' ) ;
#206 = EDGE_LOOP ( 'NONE', ( #69 ) ) ;
#207 = PERSON_AND_ORGANIZATION ( #203, #186 ) ;
#208 = CIRCLE ( 'NONE', #120, 0.4356624327025950816 ) ;
#209 = APPROVAL ( #158, 'UNSPECIFIED' ) ;
#210 = CIRCLE ( 'NONE', #95, 0.5103844939755813881 ) ;
#211 = DIRECTION ( 'NONE',  ( 0.0000000000000000000, 1.000000000000000000, 0.0000000000000000000 ) ) ;
#212 = PLANE ( 'NONE',  #33 ) ;
#213 = AXIS2_PLACEMENT_3D ( 'NONE', #243, #10, #96 ) ;
#214 =( NAMED_UNIT ( * ) PLANE_ANGLE_UNIT ( ) SI_UNIT ( $, .RADIAN. ) );
#215 = FACE_OUTER_BOUND ( 'NONE', #257, .T. ) ;
#216 = VERTEX_POINT ( 'NONE', #17 ) ;
#217 = DIRECTION ( 'NONE',  ( 3.320568869633168828E-31, 1.000000000000000000, 9.346570452461255152E-17 ) ) ;
#218 = SECURITY_CLASSIFICATION ( '', '', #219 ) ;
#219 = SECURITY_CLASSIFICATION_LEVEL ( 'unclassified' ) ;
#220 = DIRECTION ( 'NONE',  ( -3.491481338843133355E-15, 1.224646799147353207E-16, -1.000000000000000000 ) ) ;
#221 = CARTESIAN_POINT ( 'NONE',  ( 1.745740669421566678E-14, 0.5799999999999994049, 5.000000000000000000 ) ) ;
#222 = DIRECTION ( 'NONE',  ( -3.491481338843133355E-15, 1.224646799147353207E-16, -1.000000000000000000 ) ) ;
#223 =( LENGTH_UNIT ( ) NAMED_UNIT ( * ) SI_UNIT ( .MILLI., .METRE. ) );
#224 = CYLINDRICAL_SURFACE ( 'NONE', #42, 0.5799999999999996270 ) ;
#225 = EDGE_LOOP ( 'NONE', ( #117 ) ) ;
#226 =( GEOMETRIC_REPRESENTATION_CONTEXT ( 3 ) GLOBAL_UNCERTAINTY_ASSIGNED_CONTEXT ( ( #268 ) ) GLOBAL_UNIT_ASSIGNED_CONTEXT ( ( #223, #214, #270 ) ) REPRESENTATION_CONTEXT ( 'NONE', 'WORKASPACE' ) );
#227 = PERSON_AND_ORGANIZATION ( #203, #186 ) ;
#228 = MECHANICAL_CONTEXT ( 'NONE', #234, 'mechanical' ) ;
#229 = EDGE_LOOP ( 'NONE', ( #284 ) ) ;
#230 = CIRCLE ( 'NONE', #56, 1.500000000000003331 ) ;
#231 = CARTESIAN_POINT ( 'NONE',  ( 0.0000000000000000000, 0.0000000000000000000, 0.0000000000000000000 ) ) ;
#232 = COORDINATED_UNIVERSAL_TIME_OFFSET ( 1, 0, .AHEAD. ) ;
#233 = EDGE_CURVE ( 'NONE', #86, #86, #230, .T. ) ;
#234 = APPLICATION_CONTEXT ( 'configuration controlled 3d designs of mechanical parts and assemblies' ) ;
#235 = DIRECTION ( 'NONE',  ( -3.491481338843133355E-15, 1.224646799147353207E-16, -1.000000000000000000 ) ) ;
#236 = DIRECTION ( 'NONE',  ( -3.491481338843133355E-15, 1.224646799147353207E-16, -1.000000000000000000 ) ) ;
#237 = EDGE_LOOP ( 'NONE', ( #265 ) ) ;
#238 = DIRECTION ( 'NONE',  ( 4.275831445896958607E-31, 1.000000000000000000, 1.224646799147353207E-16 ) ) ;
#239 = ORIENTED_EDGE ( 'NONE', *, *, #199, .F. ) ;
#240 = ADVANCED_FACE ( 'NONE', ( #79, #169 ), #100, .T. ) ;
#241 = DIRECTION ( 'NONE',  ( -3.491481338843133355E-15, 1.224646799147353207E-16, -1.000000000000000000 ) ) ;
#242 = AXIS2_PLACEMENT_3D ( 'NONE', #297, #61, #153 ) ;
#243 = CARTESIAN_POINT ( 'NONE',  ( 8.728703347107831416E-16, -3.061616997868382402E-17, 0.2499999999999999445 ) ) ;
#244 = CARTESIAN_POINT ( 'NONE',  ( 0.0000000000000000000, 0.0000000000000000000, 0.0000000000000000000 ) ) ;
#245 = EDGE_CURVE ( 'NONE', #135, #135, #210, .T. ) ;
#246 = DIRECTION ( 'NONE',  ( -4.275831445896958607E-31, -1.000000000000000000, -1.224646799147353207E-16 ) ) ;
#247 = DIRECTION ( 'NONE',  ( 4.275831445896957731E-31, 1.000000000000000000, 1.224646799147352961E-16 ) ) ;
#248 = CIRCLE ( 'NONE', #293, 0.4799999999999991496 ) ;
#249 = FACE_OUTER_BOUND ( 'NONE', #36, .T. ) ;
#250 = FACE_OUTER_BOUND ( 'NONE', #123, .T. ) ;
#251 = EDGE_LOOP ( 'NONE', ( #97 ) ) ;
#252 = LOCAL_TIME ( 11, 40, 17.00000000000000000, #196 ) ;
#253 = APPROVAL_PERSON_ORGANIZATION ( #68, #25, #108 ) ;
#254 = ORIENTED_EDGE ( 'NONE', *, *, #194, .F. ) ;
#255 = ADVANCED_FACE ( 'NONE', ( #62 ), #129, .T. ) ;
#256 = ORIENTED_EDGE ( 'NONE', *, *, #233, .T. ) ;
#257 = EDGE_LOOP ( 'NONE', ( #143 ) ) ;
#258 = CIRCLE ( 'NONE', #50, 1.200000000000003286 ) ;
#259 = ADVANCED_FACE ( 'NONE', ( #164, #76 ), #75, .F. ) ;
#260 = ADVANCED_FACE ( 'NONE', ( #145, #190 ), #105, .T. ) ;
#261 = CALENDAR_DATE ( 2021, 1, 12 ) ;
#262 = EDGE_LOOP ( 'NONE', ( #256 ) ) ;
#263 = DIRECTION ( 'NONE',  ( -4.275831445896958607E-31, -1.000000000000000000, -1.224646799147353207E-16 ) ) ;
#264 = APPROVAL_PERSON_ORGANIZATION ( #227, #209, #134 ) ;
#265 = ORIENTED_EDGE ( 'NONE', *, *, #6, .T. ) ;
#266 = DIRECTION ( 'NONE',  ( 0.0000000000000000000, 1.000000000000000000, 0.0000000000000000000 ) ) ;
#267 = CARTESIAN_POINT ( 'NONE',  ( 6.270590427156641191E-14, -2.199427048327246547E-15, 17.95968478306213001 ) ) ;
#268 = UNCERTAINTY_MEASURE_WITH_UNIT (LENGTH_MEASURE( 1.000000000000000082E-05 ), #223, 'distance_accuracy_value', 'NONE');
#269 = FACE_OUTER_BOUND ( 'NONE', #251, .T. ) ;
#270 =( NAMED_UNIT ( * ) SI_UNIT ( $, .STERADIAN. ) SOLID_ANGLE_UNIT ( ) );
#271 = APPROVAL_PERSON_ORGANIZATION ( #207, #178, #51 ) ;
#272 = PRODUCT_RELATED_PRODUCT_CATEGORY ( 'detail', '', ( #31 ) ) ;
#273 = CARTESIAN_POINT ( 'NONE',  ( 1.745740669421566678E-14, 4.349303369719377757E-33, 5.000000000000000000 ) ) ;
#274 = DIRECTION ( 'NONE',  ( 4.275831445896958607E-31, 1.000000000000000000, 1.224646799147353207E-16 ) ) ;
#275 = DIRECTION ( 'NONE',  ( -3.491481338843133355E-15, 1.224646799147353207E-16, -1.000000000000000000 ) ) ;
#276 = DIRECTION ( 'NONE',  ( -3.491481338843133355E-15, 1.224646799147353207E-16, -1.000000000000000000 ) ) ;
#277 = CARTESIAN_POINT ( 'NONE',  ( 1.326762908760390423E-13, 1.199999999999998845, 38.00000000000000000 ) ) ;
#278 = DIRECTION ( 'NONE',  ( 3.491481338843133355E-15, -1.224646799147353207E-16, 1.000000000000000000 ) ) ;
#279 = CARTESIAN_POINT ( 'NONE',  ( 1.745740669421566678E-14, 0.5799999999999994049, 5.000000000000000000 ) ) ;
#280 = AXIS2_PLACEMENT_3D ( 'NONE', #273, #9, #290 ) ;
#281 = APPROVAL_DATE_TIME ( #114, #25 ) ;
#282 = EDGE_LOOP ( 'NONE', ( #161 ) ) ;
#283 = PERSON_AND_ORGANIZATION_ROLE ( 'creator' ) ;
#284 = ORIENTED_EDGE ( 'NONE', *, *, #298, .F. ) ;
#285 = AXIS2_PLACEMENT_3D ( 'NONE', #125, #275, #40 ) ;
#286 = APPLICATION_PROTOCOL_DEFINITION ( 'international standard', 'config_control_design', 1994, #128 ) ;
#287 = ORIENTED_EDGE ( 'NONE', *, *, #6, .F. ) ;
#288 = PRODUCT_DEFINITION_SHAPE ( 'NONE', 'NONE',  #151 ) ;
#289 = FACE_BOUND ( 'NONE', #166, .T. ) ;
#290 = DIRECTION ( 'NONE',  ( -4.275831445896958607E-31, -1.000000000000000000, -1.224646799147353207E-16 ) ) ;
#291 = CARTESIAN_POINT ( 'NONE',  ( 4.311035480981395782E-14, -1.512107695968337463E-15, 12.34729635533384595 ) ) ;
#292 = CARTESIAN_POINT ( 'NONE',  ( 1.745740669421566678E-14, -6.123233995736766282E-16, 5.000000000000000000 ) ) ;
#293 = AXIS2_PLACEMENT_3D ( 'NONE', #146, #124, #266 ) ;
#294 = FACE_OUTER_BOUND ( 'NONE', #206, .T. ) ;
#295 = CYLINDRICAL_SURFACE ( 'NONE', #28, 1.500000000000000444 ) ;
#296 = CARTESIAN_POINT ( 'NONE',  ( 1.316288464743861212E-13, -4.616918432785521081E-15, 37.69999999999999574 ) ) ;
#297 = CARTESIAN_POINT ( 'NONE',  ( 6.270590427156641191E-14, -2.199427048327246547E-15, 17.95968478306213001 ) ) ;
#298 = EDGE_CURVE ( 'NONE', #59, #59, #16, .T. ) ;
#299 = CONICAL_SURFACE ( 'NONE', #242, 1.499999999999997558, 0.1745329251994259256 ) ;
#300 = VERTEX_POINT ( 'NONE', #41 ) ;
#301 = CARTESIAN_POINT ( 'NONE',  ( 1.806214900147117080E-14, 0.4799999999999984834, 5.173205080756892116 ) ) ;
#302 = VERTEX_POINT ( 'NONE', #112 ) ;
#303 = AXIS2_PLACEMENT_3D ( 'NONE', #267, #122, #191 ) ;
ENDSEC;
END-ISO-10303-21;
