ISO-10303-21;
HEADER;
FILE_DESCRIPTION (( 'STEP AP203' ),
    '1' );
FILE_NAME ('327013.step',
    '2021-12-01T10:40:16',
    ( '' ),
    ( '' ),
    'SwSTEP 2.0',
    'SolidWorks 2019',
    '' );
FILE_SCHEMA (( 'CONFIG_CONTROL_DESIGN' ));
ENDSEC;

DATA;
#1 = ORIENTED_EDGE ( 'NONE', *, *, #205, .T. ) ;
#2 = ADVANCED_FACE ( 'NONE', ( #95, #30 ), #212, .T. ) ;
#3 = ORIENTED_EDGE ( 'NONE', *, *, #154, .T. ) ;
#4 = EDGE_CURVE ( 'NONE', #293, #293, #250, .T. ) ;
#5 = EDGE_LOOP ( 'NONE', ( #211 ) ) ;
#6 = TOROIDAL_SURFACE ( 'NONE', #102, 2.475000000000000089, 2.000000000000000444 ) ;
#7 = CC_DESIGN_SECURITY_CLASSIFICATION ( #114, ( #10 ) ) ;
#8 = DIRECTION ( 'NONE',  ( -3.491481338843133355E-15, 1.224646799147353207E-16, -1.000000000000000000 ) ) ;
#9 = FACE_OUTER_BOUND ( 'NONE', #164, .T. ) ;
#10 = PRODUCT_DEFINITION_FORMATION_WITH_SPECIFIED_SOURCE ( 'ANY', '', #190, .NOT_KNOWN. ) ;
#11 = CIRCLE ( 'NONE', #84, 0.4256624327025950727 ) ;
#12 = CARTESIAN_POINT ( 'NONE',  ( 1.745740669421566678E-14, 0.5699999999999992850, 5.000000000000000000 ) ) ;
#13 = FACE_BOUND ( 'NONE', #31, .T. ) ;
#14 = DATE_AND_TIME ( #266, #231 ) ;
#15 = CARTESIAN_POINT ( 'NONE',  ( 4.189777606611760026E-14, -1.469576158976823947E-15, 12.00000000000000000 ) ) ;
#16 = CARTESIAN_POINT ( 'NONE',  ( -1.892735826383161137E-31, 0.4256624327025950727, -5.421010862427522170E-17 ) ) ;
#17 = DATE_AND_TIME ( #243, #284 ) ;
#18 = MECHANICAL_CONTEXT ( 'NONE', #198, 'mechanical' ) ;
#19 = PLANE ( 'NONE',  #234 ) ;
#20 = APPROVAL_STATUS ( 'not_yet_approved' ) ;
#21 = AXIS2_PLACEMENT_3D ( 'NONE', #244, #297, #138 ) ;
#22 = DATE_AND_TIME ( #115, #303 ) ;
#23 = AXIS2_PLACEMENT_3D ( 'NONE', #72, #140, #27 ) ;
#24 = DIRECTION ( 'NONE',  ( 0.0000000000000000000, 1.000000000000000000, 0.0000000000000000000 ) ) ;
#25 = ORIENTED_EDGE ( 'NONE', *, *, #79, .T. ) ;
#26 = CARTESIAN_POINT ( 'NONE',  ( 1.745740669421566678E-14, -6.123233995736766282E-16, 5.000000000000000000 ) ) ;
#27 = DIRECTION ( 'NONE',  ( -4.275831445896958607E-31, -1.000000000000000000, -1.224646799147353207E-16 ) ) ;
#28 = EDGE_CURVE ( 'NONE', #291, #291, #71, .T. ) ;
#29 = ORIENTED_EDGE ( 'NONE', *, *, #205, .F. ) ;
#30 = FACE_OUTER_BOUND ( 'NONE', #142, .T. ) ;
#31 = EDGE_LOOP ( 'NONE', ( #278 ) ) ;
#32 = AXIS2_PLACEMENT_3D ( 'NONE', #15, #275, #24 ) ;
#33 = EDGE_LOOP ( 'NONE', ( #163 ) ) ;
#34 = FACE_BOUND ( 'NONE', #282, .T. ) ;
#35 = ADVANCED_FACE ( 'NONE', ( #280 ), #286, .T. ) ;
#36 = DIRECTION ( 'NONE',  ( -3.491481338843133355E-15, 1.224646799147353207E-16, -1.000000000000000000 ) ) ;
#37 = PERSON_AND_ORGANIZATION_ROLE ( 'classification_officer' ) ;
#38 = CARTESIAN_POINT ( 'NONE',  ( 4.311035480981395782E-14, -1.512107695968337463E-15, 12.34729635533384595 ) ) ;
#39 = APPLICATION_PROTOCOL_DEFINITION ( 'international standard', 'config_control_design', 1994, #198 ) ;
#40 = FACE_OUTER_BOUND ( 'NONE', #235, .T. ) ;
#41 = PERSON_AND_ORGANIZATION_ROLE ( 'creator' ) ;
#42 = AXIS2_PLACEMENT_3D ( 'NONE', #167, #256, #168 ) ;
#43 = SECURITY_CLASSIFICATION_LEVEL ( 'unclassified' ) ;
#44 = CLOSED_SHELL ( 'NONE', ( #110, #257, #298, #35 ) ) ;
#45 = AXIS2_PLACEMENT_3D ( 'NONE', #185, #52, #194 ) ;
#46 = EDGE_LOOP ( 'NONE', ( #189 ) ) ;
#47 = ORIENTED_EDGE ( 'NONE', *, *, #186, .T. ) ;
#48 = LOCAL_TIME ( 11, 40, 16.00000000000000000, #65 ) ;
#49 = FACE_OUTER_BOUND ( 'NONE', #91, .T. ) ;
#50 = AXIS2_PLACEMENT_3D ( 'NONE', #101, #78, #172 ) ;
#51 = EDGE_LOOP ( 'NONE', ( #302 ) ) ;
#52 = DIRECTION ( 'NONE',  ( -3.491481338843133355E-15, 1.224646799147353207E-16, -1.000000000000000000 ) ) ;
#53 = ORIENTED_EDGE ( 'NONE', *, *, #272, .T. ) ;
#54 = PLANE ( 'NONE',  #224 ) ;
#55 = ADVANCED_FACE ( 'NONE', ( #49 ), #76, .F. ) ;
#56 = PRODUCT_DEFINITION ( 'UNKNOWN', '', #10, #116 ) ;
#57 =( LENGTH_UNIT ( ) NAMED_UNIT ( * ) SI_UNIT ( .MILLI., .METRE. ) );
#58 = VERTEX_POINT ( 'NONE', #12 ) ;
#59 = CARTESIAN_POINT ( 'NONE',  ( 6.280491014476895838E-14, -2.202899706890974152E-15, 17.98804119216021036 ) ) ;
#60 = APPROVAL_ROLE ( '' ) ;
#61 = DATE_TIME_ROLE ( 'creation_date' ) ;
#62 = CONICAL_SURFACE ( 'NONE', #50, 1.200000000000003286, 0.7853981633974453924 ) ;
#63 = DIRECTION ( 'NONE',  ( 3.491481338843133355E-15, -1.224646799147353207E-16, 1.000000000000000000 ) ) ;
#64 = PERSON_AND_ORGANIZATION_ROLE ( 'creator' ) ;
#65 = COORDINATED_UNIVERSAL_TIME_OFFSET ( 1, 0, .AHEAD. ) ;
#66 = ADVANCED_FACE ( 'NONE', ( #122, #213 ), #258, .T. ) ;
#67 = CC_DESIGN_DATE_AND_TIME_ASSIGNMENT ( #14, #137, ( #114 ) ) ;
#68 = FACE_BOUND ( 'NONE', #87, .T. ) ;
#69 = PERSON_AND_ORGANIZATION ( #263, #94 ) ;
#70 = CIRCLE ( 'NONE', #32, 0.4749999999999998668 ) ;
#71 = CIRCLE ( 'NONE', #45, 0.5699999999999992850 ) ;
#72 = CARTESIAN_POINT ( 'NONE',  ( 1.745740669421566678E-14, 4.274315380586285014E-33, 5.000000000000000000 ) ) ;
#73 = DIRECTION ( 'NONE',  ( -3.491481338843133355E-15, 1.224646799147353207E-16, -1.000000000000000000 ) ) ;
#74 = CC_DESIGN_APPROVAL ( #111, ( #56 ) ) ;
#75 = ORIENTED_EDGE ( 'NONE', *, *, #28, .T. ) ;
#76 = PLANE ( 'NONE',  #227 ) ;
#77 = AXIS2_PLACEMENT_3D ( 'NONE', #240, #36, #148 ) ;
#78 = DIRECTION ( 'NONE',  ( -3.491481338843133355E-15, 1.224646799147353207E-16, -1.000000000000000000 ) ) ;
#79 = EDGE_CURVE ( 'NONE', #217, #217, #11, .T. ) ;
#80 = CALENDAR_DATE ( 2021, 1, 12 ) ;
#81 = CARTESIAN_POINT ( 'NONE',  ( 8.728703347107831416E-16, -3.061616997868382402E-17, 0.2499999999999999445 ) ) ;
#82 = CARTESIAN_POINT ( 'NONE',  ( 1.316288464743861212E-13, 1.499999999999998668, 37.69999999999999574 ) ) ;
#83 = APPROVAL ( #20, 'UNSPECIFIED' ) ;
#84 = AXIS2_PLACEMENT_3D ( 'NONE', #187, #73, #197 ) ;
#85 = CARTESIAN_POINT ( 'NONE',  ( 1.745740669421566678E-14, -6.123233995736766282E-16, 5.000000000000000000 ) ) ;
#86 = DIRECTION ( 'NONE',  ( 0.0000000000000000000, 1.000000000000000000, 0.0000000000000000000 ) ) ;
#87 = EDGE_LOOP ( 'NONE', ( #121 ) ) ;
#88 =( GEOMETRIC_REPRESENTATION_CONTEXT ( 3 ) GLOBAL_UNCERTAINTY_ASSIGNED_CONTEXT ( ( #259 ) ) GLOBAL_UNIT_ASSIGNED_CONTEXT ( ( #57, #99, #156 ) ) REPRESENTATION_CONTEXT ( 'NONE', 'WORKASPACE' ) );
#89 = ORIENTED_EDGE ( 'NONE', *, *, #186, .F. ) ;
#90 = ADVANCED_FACE ( 'NONE', ( #9, #100 ), #161, .T. ) ;
#91 = EDGE_LOOP ( 'NONE', ( #232 ) ) ;
#92 = FACE_OUTER_BOUND ( 'NONE', #5, .T. ) ;
#93 = EDGE_LOOP ( 'NONE', ( #271 ) ) ;
#94 = ORGANIZATION ( 'UNSPECIFIED', 'UNSPECIFIED', '' ) ;
#95 = FACE_OUTER_BOUND ( 'NONE', #93, .T. ) ;
#96 = CARTESIAN_POINT ( 'NONE',  ( 0.0000000000000000000, 0.0000000000000000000, 0.0000000000000000000 ) ) ;
#97 = ADVANCED_FACE ( 'NONE', ( #129, #13 ), #62, .T. ) ;
#98 = AXIS2_PLACEMENT_3D ( 'NONE', #81, #63, #289 ) ;
#99 =( NAMED_UNIT ( * ) PLANE_ANGLE_UNIT ( ) SI_UNIT ( $, .RADIAN. ) );
#100 = FACE_BOUND ( 'NONE', #46, .T. ) ;
#101 = CARTESIAN_POINT ( 'NONE',  ( 1.326762908760390423E-13, -4.653657836759941941E-15, 38.00000000000000000 ) ) ;
#102 = AXIS2_PLACEMENT_3D ( 'NONE', #136, #223, #269 ) ;
#103 = CARTESIAN_POINT ( 'NONE',  ( 1.803191188610839575E-14, 0.4749999999999985345, 5.164544826719046355 ) ) ;
#104 = CC_DESIGN_APPROVAL ( #216, ( #10 ) ) ;
#105 = CARTESIAN_POINT ( 'NONE',  ( 0.0000000000000000000, 0.0000000000000000000, 0.0000000000000000000 ) ) ;
#106 = FACE_OUTER_BOUND ( 'NONE', #33, .T. ) ;
#107 = PERSON_AND_ORGANIZATION ( #263, #94 ) ;
#108 = FACE_OUTER_BOUND ( 'NONE', #281, .T. ) ;
#109 = COORDINATED_UNIVERSAL_TIME_OFFSET ( 1, 0, .AHEAD. ) ;
#110 = ADVANCED_FACE ( 'NONE', ( #261 ), #54, .F. ) ;
#111 = APPROVAL ( #301, 'UNSPECIFIED' ) ;
#112 = DATE_AND_TIME ( #80, #171 ) ;
#113 = AXIS2_PLACEMENT_3D ( 'NONE', #105, #225, #200 ) ;
#114 = SECURITY_CLASSIFICATION ( '', '', #43 ) ;
#115 = CALENDAR_DATE ( 2021, 1, 12 ) ;
#116 = DESIGN_CONTEXT ( 'detailed design', #162, 'design' ) ;
#117 = CYLINDRICAL_SURFACE ( 'NONE', #215, 0.5699999999999996181 ) ;
#118 = AXIS2_PLACEMENT_3D ( 'NONE', #59, #151, #242 ) ;
#119 = EDGE_LOOP ( 'NONE', ( #25 ) ) ;
#120 = EDGE_LOOP ( 'NONE', ( #75 ) ) ;
#121 = ORIENTED_EDGE ( 'NONE', *, *, #79, .F. ) ;
#122 = FACE_OUTER_BOUND ( 'NONE', #125, .T. ) ;
#123 = PRODUCT_RELATED_PRODUCT_CATEGORY ( 'detail', '', ( #190 ) ) ;
#124 = AXIS2_PLACEMENT_3D ( 'NONE', #193, #253, #252 ) ;
#125 = EDGE_LOOP ( 'NONE', ( #29 ) ) ;
#126 = FACE_OUTER_BOUND ( 'NONE', #221, .T. ) ;
#127 = CONICAL_SURFACE ( 'NONE', #118, 1.499999999999997558, 0.1745329251994261477 ) ;
#128 = VERTEX_POINT ( 'NONE', #201 ) ;
#129 = FACE_OUTER_BOUND ( 'NONE', #285, .T. ) ;
#130 = CARTESIAN_POINT ( 'NONE',  ( 4.189777606611760026E-14, 0.4749999999999984235, 12.00000000000000000 ) ) ;
#131 = PERSON_AND_ORGANIZATION ( #263, #94 ) ;
#132 = AXIS2_PLACEMENT_3D ( 'NONE', #38, #153, #220 ) ;
#133 = APPROVAL_ROLE ( '' ) ;
#134 = DIRECTION ( 'NONE',  ( -4.275831445896958607E-31, -1.000000000000000000, -1.224646799147353207E-16 ) ) ;
#135 = DIRECTION ( 'NONE',  ( -3.491481338843133355E-15, 1.224646799147353207E-16, -1.000000000000000000 ) ) ;
#136 = CARTESIAN_POINT ( 'NONE',  ( 4.189777606611760026E-14, -1.301042606982605321E-15, 12.00000000000000000 ) ) ;
#137 = DATE_TIME_ROLE ( 'classification_date' ) ;
#138 = DIRECTION ( 'NONE',  ( 0.0000000000000000000, 1.000000000000000000, 0.0000000000000000000 ) ) ;
#139 = CLOSED_SHELL ( 'NONE', ( #199, #90, #2, #208, #150, #66, #97, #55 ) ) ;
#140 = DIRECTION ( 'NONE',  ( 3.491481338843133355E-15, -1.224646799147353207E-16, 1.000000000000000000 ) ) ;
#141 = PRODUCT_DEFINITION_SHAPE ( 'NONE', 'NONE',  #56 ) ;
#142 = EDGE_LOOP ( 'NONE', ( #47 ) ) ;
#143 = CC_DESIGN_DATE_AND_TIME_ASSIGNMENT ( #112, #61, ( #56 ) ) ;
#144 = CC_DESIGN_PERSON_AND_ORGANIZATION_ASSIGNMENT ( #160, #248, ( #10 ) ) ;
#145 = ORIENTED_EDGE ( 'NONE', *, *, #154, .F. ) ;
#146 = DIRECTION ( 'NONE',  ( -3.491481338843133355E-15, 1.224646799147353207E-16, -1.000000000000000000 ) ) ;
#147 = ORIENTED_EDGE ( 'NONE', *, *, #165, .F. ) ;
#148 = DIRECTION ( 'NONE',  ( 0.0000000000000000000, 1.000000000000000000, 0.0000000000000000000 ) ) ;
#149 = DIRECTION ( 'NONE',  ( -4.275831445896958607E-31, -1.000000000000000000, -1.224646799147353207E-16 ) ) ;
#150 = ADVANCED_FACE ( 'NONE', ( #34, #126 ), #127, .T. ) ;
#151 = DIRECTION ( 'NONE',  ( 3.491481338843133355E-15, -1.224646799147353207E-16, 1.000000000000000000 ) ) ;
#152 = APPROVAL_DATE_TIME ( #22, #111 ) ;
#153 = DIRECTION ( 'NONE',  ( -3.491481338843133355E-15, 1.224646799147353207E-16, -1.000000000000000000 ) ) ;
#154 = EDGE_CURVE ( 'NONE', #128, #128, #300, .T. ) ;
#155 = CONICAL_SURFACE ( 'NONE', #98, 0.5699999999999992850, 0.5235987755982922653 ) ;
#156 =( NAMED_UNIT ( * ) SI_UNIT ( $, .STERADIAN. ) SOLID_ANGLE_UNIT ( ) );
#157 = SHAPE_DEFINITION_REPRESENTATION ( #141, #159 ) ;
#158 = CARTESIAN_POINT ( 'NONE',  ( 1.745740669421566678E-14, 4.274315380586285014E-33, 5.000000000000000000 ) ) ;
#159 = ADVANCED_BREP_SHAPE_REPRESENTATION ( '327013', ( #191, #290, #113 ), #88 ) ;
#160 = PERSON_AND_ORGANIZATION ( #263, #94 ) ;
#161 = CONICAL_SURFACE ( 'NONE', #77, 0.4749999999999992006, 0.5235987755982941527 ) ;
#162 = APPLICATION_CONTEXT ( 'configuration controlled 3d designs of mechanical parts and assemblies' ) ;
#163 = ORIENTED_EDGE ( 'NONE', *, *, #165, .T. ) ;
#164 = EDGE_LOOP ( 'NONE', ( #147 ) ) ;
#165 = EDGE_CURVE ( 'NONE', #58, #58, #169, .T. ) ;
#166 = EDGE_LOOP ( 'NONE', ( #183 ) ) ;
#167 = CARTESIAN_POINT ( 'NONE',  ( 1.326762908760390423E-13, -4.653657836759941941E-15, 38.00000000000000000 ) ) ;
#168 = DIRECTION ( 'NONE',  ( 0.0000000000000000000, 1.000000000000000000, 0.0000000000000000000 ) ) ;
#169 = CIRCLE ( 'NONE', #207, 0.5699999999999999512 ) ;
#170 = CARTESIAN_POINT ( 'NONE',  ( 1.803191188610839575E-14, -6.324743291094502006E-16, 5.164544826719046355 ) ) ;
#171 = LOCAL_TIME ( 11, 40, 16.00000000000000000, #218 ) ;
#172 = DIRECTION ( 'NONE',  ( 0.0000000000000000000, 1.000000000000000000, 0.0000000000000000000 ) ) ;
#173 = VERTEX_POINT ( 'NONE', #103 ) ;
#174 = CALENDAR_DATE ( 2021, 1, 12 ) ;
#175 = VERTEX_POINT ( 'NONE', #241 ) ;
#176 = APPLICATION_PROTOCOL_DEFINITION ( 'international standard', 'config_control_design', 1994, #162 ) ;
#177 = APPROVAL_PERSON_ORGANIZATION ( #131, #216, #133 ) ;
#178 = APPROVAL_PERSON_ORGANIZATION ( #107, #83, #60 ) ;
#179 = AXIS2_PLACEMENT_3D ( 'NONE', #96, #8, #230 ) ;
#180 = PERSON_AND_ORGANIZATION ( #263, #94 ) ;
#181 = PERSON_AND_ORGANIZATION ( #263, #94 ) ;
#182 = DIRECTION ( 'NONE',  ( 3.491481338843133355E-15, -1.224646799147353207E-16, 1.000000000000000000 ) ) ;
#183 = ORIENTED_EDGE ( 'NONE', *, *, #195, .T. ) ;
#184 = CARTESIAN_POINT ( 'NONE',  ( 0.0000000000000000000, 0.0000000000000000000, 0.0000000000000000000 ) ) ;
#185 = CARTESIAN_POINT ( 'NONE',  ( 8.728703347107831416E-16, -3.061616997868382402E-17, 0.2499999999999999445 ) ) ;
#186 = EDGE_CURVE ( 'NONE', #292, #292, #70, .T. ) ;
#187 = CARTESIAN_POINT ( 'NONE',  ( -3.712796641469914985E-31, 1.302273757638851426E-32, -1.063387221969260883E-16 ) ) ;
#188 = CC_DESIGN_PERSON_AND_ORGANIZATION_ASSIGNMENT ( #69, #64, ( #10 ) ) ;
#189 = ORIENTED_EDGE ( 'NONE', *, *, #260, .T. ) ;
#190 = PRODUCT ( '327013', '327013', '', ( #18 ) ) ;
#191 = MANIFOLD_SOLID_BREP ( 'Corps-Déplacer/Copier1[1]', #139 ) ;
#192 = CIRCLE ( 'NONE', #196, 1.499999999999997558 ) ;
#193 = CARTESIAN_POINT ( 'NONE',  ( 0.0000000000000000000, 0.0000000000000000000, 0.0000000000000000000 ) ) ;
#194 = DIRECTION ( 'NONE',  ( 3.378824463837259954E-31, 1.000000000000000000, 9.510545372679874917E-17 ) ) ;
#195 = EDGE_CURVE ( 'NONE', #295, #295, #270, .T. ) ;
#196 = AXIS2_PLACEMENT_3D ( 'NONE', #249, #277, #294 ) ;
#197 = DIRECTION ( 'NONE',  ( 4.275831445896958607E-31, 1.000000000000000000, 1.224646799147353207E-16 ) ) ;
#198 = APPLICATION_CONTEXT ( 'configuration controlled 3d designs of mechanical parts and assemblies' ) ;
#199 = ADVANCED_FACE ( 'NONE', ( #106 ), #19, .F. ) ;
#200 = DIRECTION ( 'NONE',  ( 1.000000000000000000, 0.0000000000000000000, 0.0000000000000000000 ) ) ;
#201 = CARTESIAN_POINT ( 'NONE',  ( 4.311035480981395782E-14, 0.5053844939755798293, 12.34729635533384595 ) ) ;
#202 = COORDINATED_UNIVERSAL_TIME_OFFSET ( 1, 0, .AHEAD. ) ;
#203 = PERSON_AND_ORGANIZATION ( #263, #94 ) ;
#204 = APPROVAL_PERSON_ORGANIZATION ( #181, #111, #222 ) ;
#205 = EDGE_CURVE ( 'NONE', #175, #175, #192, .T. ) ;
#206 = APPROVAL_DATE_TIME ( #299, #216 ) ;
#207 = AXIS2_PLACEMENT_3D ( 'NONE', #85, #274, #86 ) ;
#208 = ADVANCED_FACE ( 'NONE', ( #108, #40 ), #6, .F. ) ;
#209 = DIRECTION ( 'NONE',  ( 0.0000000000000000000, 1.000000000000000000, 0.0000000000000000000 ) ) ;
#210 = CARTESIAN_POINT ( 'NONE',  ( 1.326762908760390423E-13, 8.998558695971103225E-33, 38.00000000000000000 ) ) ;
#211 = ORIENTED_EDGE ( 'NONE', *, *, #28, .F. ) ;
#212 = CYLINDRICAL_SURFACE ( 'NONE', #124, 0.4749999999999995337 ) ;
#213 = FACE_OUTER_BOUND ( 'NONE', #166, .T. ) ;
#214 = ORIENTED_EDGE ( 'NONE', *, *, #195, .F. ) ;
#215 = AXIS2_PLACEMENT_3D ( 'NONE', #184, #135, #245 ) ;
#216 = APPROVAL ( #276, 'UNSPECIFIED' ) ;
#217 = VERTEX_POINT ( 'NONE', #16 ) ;
#218 = COORDINATED_UNIVERSAL_TIME_OFFSET ( 1, 0, .AHEAD. ) ;
#219 = COORDINATED_UNIVERSAL_TIME_OFFSET ( 1, 0, .AHEAD. ) ;
#220 = DIRECTION ( 'NONE',  ( 0.0000000000000000000, 1.000000000000000000, 0.0000000000000000000 ) ) ;
#221 = EDGE_LOOP ( 'NONE', ( #1 ) ) ;
#222 = APPROVAL_ROLE ( '' ) ;
#223 = DIRECTION ( 'NONE',  ( -3.491481338843133355E-15, 1.224646799147353207E-16, -1.000000000000000000 ) ) ;
#224 = AXIS2_PLACEMENT_3D ( 'NONE', #287, #264, #149 ) ;
#225 = DIRECTION ( 'NONE',  ( 0.0000000000000000000, 0.0000000000000000000, 1.000000000000000000 ) ) ;
#226 = FACE_OUTER_BOUND ( 'NONE', #120, .T. ) ;
#227 = AXIS2_PLACEMENT_3D ( 'NONE', #210, #146, #233 ) ;
#228 = FACE_OUTER_BOUND ( 'NONE', #255, .T. ) ;
#229 = DIRECTION ( 'NONE',  ( 0.0000000000000000000, 1.000000000000000000, 0.0000000000000000000 ) ) ;
#230 = DIRECTION ( 'NONE',  ( 4.275831445896958607E-31, 1.000000000000000000, 1.224646799147353207E-16 ) ) ;
#231 = LOCAL_TIME ( 11, 40, 16.00000000000000000, #219 ) ;
#232 = ORIENTED_EDGE ( 'NONE', *, *, #4, .F. ) ;
#233 = DIRECTION ( 'NONE',  ( 4.275831445896958607E-31, 1.000000000000000000, 1.224646799147353207E-16 ) ) ;
#234 = AXIS2_PLACEMENT_3D ( 'NONE', #158, #182, #134 ) ;
#235 = EDGE_LOOP ( 'NONE', ( #3 ) ) ;
#236 = CC_DESIGN_PERSON_AND_ORGANIZATION_ASSIGNMENT ( #203, #41, ( #56 ) ) ;
#237 = CARTESIAN_POINT ( 'NONE',  ( 8.728703347107833388E-16, 0.5699999999999992850, 0.2500000000000000000 ) ) ;
#238 = CIRCLE ( 'NONE', #283, 0.5699999999999999512 ) ;
#239 = CARTESIAN_POINT ( 'NONE',  ( 1.326762908760390423E-13, 1.199999999999998845, 38.00000000000000000 ) ) ;
#240 = CARTESIAN_POINT ( 'NONE',  ( 1.803191188610839575E-14, -6.324743291094502006E-16, 5.164544826719046355 ) ) ;
#241 = CARTESIAN_POINT ( 'NONE',  ( 6.280491014476895838E-14, 1.499999999999995559, 17.98804119216021036 ) ) ;
#242 = DIRECTION ( 'NONE',  ( 0.0000000000000000000, -1.000000000000000000, 0.0000000000000000000 ) ) ;
#243 = CALENDAR_DATE ( 2021, 1, 12 ) ;
#244 = CARTESIAN_POINT ( 'NONE',  ( 1.316288464743861212E-13, -4.616918432785521081E-15, 37.69999999999999574 ) ) ;
#245 = DIRECTION ( 'NONE',  ( 4.275831445896958607E-31, 1.000000000000000000, 1.224646799147353454E-16 ) ) ;
#246 = CC_DESIGN_PERSON_AND_ORGANIZATION_ASSIGNMENT ( #268, #273, ( #190 ) ) ;
#247 = CC_DESIGN_PERSON_AND_ORGANIZATION_ASSIGNMENT ( #180, #37, ( #114 ) ) ;
#248 = PERSON_AND_ORGANIZATION_ROLE ( 'design_supplier' ) ;
#249 = CARTESIAN_POINT ( 'NONE',  ( 6.280491014476895838E-14, -2.202899706890974152E-15, 17.98804119216021036 ) ) ;
#250 = CIRCLE ( 'NONE', #42, 1.200000000000003286 ) ;
#251 = DIRECTION ( 'NONE',  ( -3.491481338843133355E-15, 1.224646799147353207E-16, -1.000000000000000000 ) ) ;
#252 = DIRECTION ( 'NONE',  ( 4.275831445896957731E-31, 1.000000000000000000, 1.224646799147353207E-16 ) ) ;
#253 = DIRECTION ( 'NONE',  ( -3.491481338843133355E-15, 1.224646799147353207E-16, -1.000000000000000000 ) ) ;
#254 = CC_DESIGN_APPROVAL ( #83, ( #114 ) ) ;
#255 = EDGE_LOOP ( 'NONE', ( #53 ) ) ;
#256 = DIRECTION ( 'NONE',  ( -3.491481338843133355E-15, 1.224646799147353207E-16, -1.000000000000000000 ) ) ;
#257 = ADVANCED_FACE ( 'NONE', ( #68, #226 ), #155, .T. ) ;
#258 = CYLINDRICAL_SURFACE ( 'NONE', #179, 1.500000000000000444 ) ;
#259 = UNCERTAINTY_MEASURE_WITH_UNIT (LENGTH_MEASURE( 1.000000000000000082E-05 ), #57, 'distance_accuracy_value', 'NONE');
#260 = EDGE_CURVE ( 'NONE', #173, #173, #279, .T. ) ;
#261 = FACE_OUTER_BOUND ( 'NONE', #119, .T. ) ;
#262 = DIRECTION ( 'NONE',  ( -3.491481338843133355E-15, 1.224646799147353207E-16, -1.000000000000000000 ) ) ;
#263 = PERSON ( 'UNSPECIFIED', 'UNSPECIFIED', 'UNSPECIFIED', ('UNSPECIFIED'), ('UNSPECIFIED'), ('UNSPECIFIED') ) ;
#264 = DIRECTION ( 'NONE',  ( 3.491481338843133355E-15, -1.224646799147353207E-16, 1.000000000000000000 ) ) ;
#265 = VERTEX_POINT ( 'NONE', #267 ) ;
#266 = CALENDAR_DATE ( 2021, 1, 12 ) ;
#267 = CARTESIAN_POINT ( 'NONE',  ( 1.745740669421566678E-14, 0.5699999999999992850, 5.000000000000000000 ) ) ;
#268 = PERSON_AND_ORGANIZATION ( #263, #94 ) ;
#269 = DIRECTION ( 'NONE',  ( 4.275831445896958607E-31, 1.000000000000000000, 1.224646799147353207E-16 ) ) ;
#270 = CIRCLE ( 'NONE', #21, 1.500000000000003331 ) ;
#271 = ORIENTED_EDGE ( 'NONE', *, *, #260, .F. ) ;
#272 = EDGE_CURVE ( 'NONE', #265, #265, #238, .T. ) ;
#273 = PERSON_AND_ORGANIZATION_ROLE ( 'design_owner' ) ;
#274 = DIRECTION ( 'NONE',  ( -3.491481338843133355E-15, 1.224646799147353207E-16, -1.000000000000000000 ) ) ;
#275 = DIRECTION ( 'NONE',  ( -3.491481338843133355E-15, 1.224646799147353207E-16, -1.000000000000000000 ) ) ;
#276 = APPROVAL_STATUS ( 'not_yet_approved' ) ;
#277 = DIRECTION ( 'NONE',  ( -3.491481338843133355E-15, 1.224646799147353207E-16, -1.000000000000000000 ) ) ;
#278 = ORIENTED_EDGE ( 'NONE', *, *, #4, .T. ) ;
#279 = CIRCLE ( 'NONE', #288, 0.4749999999999992006 ) ;
#280 = FACE_OUTER_BOUND ( 'NONE', #51, .T. ) ;
#281 = EDGE_LOOP ( 'NONE', ( #89 ) ) ;
#282 = EDGE_LOOP ( 'NONE', ( #145 ) ) ;
#283 = AXIS2_PLACEMENT_3D ( 'NONE', #26, #251, #209 ) ;
#284 = LOCAL_TIME ( 11, 40, 16.00000000000000000, #202 ) ;
#285 = EDGE_LOOP ( 'NONE', ( #214 ) ) ;
#286 = PLANE ( 'NONE',  #23 ) ;
#287 = CARTESIAN_POINT ( 'NONE',  ( -1.856398320734957492E-31, 6.511368788194257128E-33, -5.316936109846304414E-17 ) ) ;
#288 = AXIS2_PLACEMENT_3D ( 'NONE', #170, #262, #229 ) ;
#289 = DIRECTION ( 'NONE',  ( -3.378824463837259954E-31, -1.000000000000000000, -9.510545372679874917E-17 ) ) ;
#290 = MANIFOLD_SOLID_BREP ( 'Corps-Déplacer/Copier1[2]', #44 ) ;
#291 = VERTEX_POINT ( 'NONE', #237 ) ;
#292 = VERTEX_POINT ( 'NONE', #130 ) ;
#293 = VERTEX_POINT ( 'NONE', #239 ) ;
#294 = DIRECTION ( 'NONE',  ( 0.0000000000000000000, 1.000000000000000000, 0.0000000000000000000 ) ) ;
#295 = VERTEX_POINT ( 'NONE', #82 ) ;
#296 = APPROVAL_DATE_TIME ( #17, #83 ) ;
#297 = DIRECTION ( 'NONE',  ( -3.491481338843133355E-15, 1.224646799147353207E-16, -1.000000000000000000 ) ) ;
#298 = ADVANCED_FACE ( 'NONE', ( #92, #228 ), #117, .T. ) ;
#299 = DATE_AND_TIME ( #174, #48 ) ;
#300 = CIRCLE ( 'NONE', #132, 0.5053844939755813837 ) ;
#301 = APPROVAL_STATUS ( 'not_yet_approved' ) ;
#302 = ORIENTED_EDGE ( 'NONE', *, *, #272, .F. ) ;
#303 = LOCAL_TIME ( 11, 40, 16.00000000000000000, #109 ) ;
ENDSEC;
END-ISO-10303-21;
