ISO-10303-21;
HEADER;
FILE_DESCRIPTION (( 'STEP AP203' ),
    '1' );
FILE_NAME ('327012.step',
    '2021-12-01T10:40:15',
    ( '' ),
    ( '' ),
    'SwSTEP 2.0',
    'SolidWorks 2019',
    '' );
FILE_SCHEMA (( 'CONFIG_CONTROL_DESIGN' ));
ENDSEC;

DATA;
#1 = AXIS2_PLACEMENT_3D ( 'NONE', #109, #158, #279 ) ;
#2 = EDGE_LOOP ( 'NONE', ( #18 ) ) ;
#3 = APPROVAL ( #263, 'UNSPECIFIED' ) ;
#4 = CARTESIAN_POINT ( 'NONE',  ( 0.0000000000000000000, 0.0000000000000000000, 0.0000000000000000000 ) ) ;
#5 = EDGE_CURVE ( 'NONE', #250, #250, #76, .T. ) ;
#6 = CARTESIAN_POINT ( 'NONE',  ( 4.189777606611760026E-14, -1.469576158976823947E-15, 12.00000000000000000 ) ) ;
#7 = DIRECTION ( 'NONE',  ( 0.0000000000000000000, 1.000000000000000000, 0.0000000000000000000 ) ) ;
#8 =( NAMED_UNIT ( * ) SI_UNIT ( $, .STERADIAN. ) SOLID_ANGLE_UNIT ( ) );
#9 = PERSON_AND_ORGANIZATION ( #79, #77 ) ;
#10 = FACE_OUTER_BOUND ( 'NONE', #303, .T. ) ;
#11 = PERSON_AND_ORGANIZATION ( #79, #77 ) ;
#12 = PRODUCT ( '327012', '327012', '', ( #302 ) ) ;
#13 = APPROVAL_PERSON_ORGANIZATION ( #220, #148, #106 ) ;
#14 = DIRECTION ( 'NONE',  ( 4.275831445896958607E-31, 1.000000000000000000, 1.224646799147353207E-16 ) ) ;
#15 = EDGE_LOOP ( 'NONE', ( #191 ) ) ;
#16 = DIRECTION ( 'NONE',  ( -3.491481338843133355E-15, 1.224646799147353207E-16, -1.000000000000000000 ) ) ;
#17 = AXIS2_PLACEMENT_3D ( 'NONE', #268, #152, #242 ) ;
#18 = ORIENTED_EDGE ( 'NONE', *, *, #270, .F. ) ;
#19 = CARTESIAN_POINT ( 'NONE',  ( -1.892735826383161575E-31, 0.4206624327025950127, -5.421010862427522170E-17 ) ) ;
#20 = PLANE ( 'NONE',  #34 ) ;
#21 = CARTESIAN_POINT ( 'NONE',  ( 1.745740669421566678E-14, 0.5649999999999992806, 5.000000000000000000 ) ) ;
#22 = APPROVAL_PERSON_ORGANIZATION ( #94, #3, #267 ) ;
#23 = CC_DESIGN_APPROVAL ( #148, ( #92 ) ) ;
#24 = ORIENTED_EDGE ( 'NONE', *, *, #69, .F. ) ;
#25 = DIRECTION ( 'NONE',  ( 0.0000000000000000000, 1.000000000000000000, 0.0000000000000000000 ) ) ;
#26 = DIRECTION ( 'NONE',  ( 3.491481338843133355E-15, -1.224646799147353207E-16, 1.000000000000000000 ) ) ;
#27 = ADVANCED_FACE ( 'NONE', ( #99, #209 ), #51, .T. ) ;
#28 = EDGE_LOOP ( 'NONE', ( #139 ) ) ;
#29 = PERSON_AND_ORGANIZATION ( #79, #77 ) ;
#30 = CARTESIAN_POINT ( 'NONE',  ( -3.691417484240430709E-31, 1.294774958725542083E-32, -1.057263987973524130E-16 ) ) ;
#31 = CALENDAR_DATE ( 2021, 1, 12 ) ;
#32 = CALENDAR_DATE ( 2021, 1, 12 ) ;
#33 = EDGE_CURVE ( 'NONE', #251, #251, #40, .T. ) ;
#34 = AXIS2_PLACEMENT_3D ( 'NONE', #138, #231, #280 ) ;
#35 = VERTEX_POINT ( 'NONE', #86 ) ;
#36 = ORIENTED_EDGE ( 'NONE', *, *, #95, .F. ) ;
#37 = DIRECTION ( 'NONE',  ( -3.491481338843133355E-15, 1.224646799147353207E-16, -1.000000000000000000 ) ) ;
#38 = EDGE_LOOP ( 'NONE', ( #238 ) ) ;
#39 = PLANE ( 'NONE',  #54 ) ;
#40 = CIRCLE ( 'NONE', #178, 0.5649999999999992806 ) ;
#41 = LOCAL_TIME ( 11, 40, 15.00000000000000000, #222 ) ;
#42 = CARTESIAN_POINT ( 'NONE',  ( 4.311035480981395782E-14, 0.5053844939755798293, 12.34729635533384595 ) ) ;
#43 = DIRECTION ( 'NONE',  ( -3.491481338843133355E-15, 1.224646799147353207E-16, -1.000000000000000000 ) ) ;
#44 = EDGE_LOOP ( 'NONE', ( #257 ) ) ;
#45 = DIRECTION ( 'NONE',  ( 0.0000000000000000000, 1.000000000000000000, 0.0000000000000000000 ) ) ;
#46 = LOCAL_TIME ( 11, 40, 15.00000000000000000, #98 ) ;
#47 = DIRECTION ( 'NONE',  ( -3.491481338843133355E-15, 1.224646799147353207E-16, -1.000000000000000000 ) ) ;
#48 = DIRECTION ( 'NONE',  ( 0.0000000000000000000, 1.000000000000000000, 0.0000000000000000000 ) ) ;
#49 = PERSON_AND_ORGANIZATION ( #79, #77 ) ;
#50 = EDGE_LOOP ( 'NONE', ( #115 ) ) ;
#51 = CONICAL_SURFACE ( 'NONE', #116, 1.200000000000003286, 0.7853981633974453924 ) ;
#52 = DIRECTION ( 'NONE',  ( 1.000000000000000000, 0.0000000000000000000, 0.0000000000000000000 ) ) ;
#53 = APPLICATION_PROTOCOL_DEFINITION ( 'international standard', 'config_control_design', 1994, #194 ) ;
#54 = AXIS2_PLACEMENT_3D ( 'NONE', #202, #295, #277 ) ;
#55 = APPROVAL_DATE_TIME ( #104, #155 ) ;
#56 = DIRECTION ( 'NONE',  ( -3.491481338843133355E-15, 1.224646799147353207E-16, -1.000000000000000000 ) ) ;
#57 = APPROVAL_DATE_TIME ( #129, #148 ) ;
#58 = EDGE_CURVE ( 'NONE', #249, #249, #67, .T. ) ;
#59 = CC_DESIGN_PERSON_AND_ORGANIZATION_ASSIGNMENT ( #49, #102, ( #12 ) ) ;
#60 = CLOSED_SHELL ( 'NONE', ( #192, #212, #246, #297 ) ) ;
#61 = FACE_OUTER_BOUND ( 'NONE', #230, .T. ) ;
#62 = LOCAL_TIME ( 11, 40, 15.00000000000000000, #151 ) ;
#63 = DIRECTION ( 'NONE',  ( 0.0000000000000000000, 1.000000000000000000, 0.0000000000000000000 ) ) ;
#64 = EDGE_LOOP ( 'NONE', ( #201 ) ) ;
#65 = FACE_OUTER_BOUND ( 'NONE', #185, .T. ) ;
#66 = ORIENTED_EDGE ( 'NONE', *, *, #5, .F. ) ;
#67 = CIRCLE ( 'NONE', #184, 0.4749999999999998668 ) ;
#68 = ORIENTED_EDGE ( 'NONE', *, *, #278, .T. ) ;
#69 = EDGE_CURVE ( 'NONE', #200, #200, #107, .T. ) ;
#70 = ADVANCED_FACE ( 'NONE', ( #262, #73 ), #288, .T. ) ;
#71 = FACE_BOUND ( 'NONE', #2, .T. ) ;
#72 = CC_DESIGN_APPROVAL ( #155, ( #87 ) ) ;
#73 = FACE_BOUND ( 'NONE', #137, .T. ) ;
#74 = CARTESIAN_POINT ( 'NONE',  ( 6.280491014476895838E-14, -2.202899706890974152E-15, 17.98804119216021036 ) ) ;
#75 = CARTESIAN_POINT ( 'NONE',  ( 1.800167477074562071E-14, -6.314137538707253535E-16, 5.155884572681202371 ) ) ;
#76 = CIRCLE ( 'NONE', #85, 0.4749999999999992006 ) ;
#77 = ORGANIZATION ( 'UNSPECIFIED', 'UNSPECIFIED', '' ) ;
#78 = DIRECTION ( 'NONE',  ( -3.491481338843133355E-15, 1.224646799147353207E-16, -1.000000000000000000 ) ) ;
#79 = PERSON ( 'UNSPECIFIED', 'UNSPECIFIED', 'UNSPECIFIED', ('UNSPECIFIED'), ('UNSPECIFIED'), ('UNSPECIFIED') ) ;
#80 = UNCERTAINTY_MEASURE_WITH_UNIT (LENGTH_MEASURE( 1.000000000000000082E-05 ), #207, 'distance_accuracy_value', 'NONE');
#81 = COORDINATED_UNIVERSAL_TIME_OFFSET ( 1, 0, .AHEAD. ) ;
#82 = DATE_AND_TIME ( #172, #41 ) ;
#83 = APPROVAL_STATUS ( 'not_yet_approved' ) ;
#84 = CARTESIAN_POINT ( 'NONE',  ( 0.0000000000000000000, 0.0000000000000000000, 0.0000000000000000000 ) ) ;
#85 = AXIS2_PLACEMENT_3D ( 'NONE', #121, #240, #25 ) ;
#86 = CARTESIAN_POINT ( 'NONE',  ( 6.280491014476895838E-14, 1.499999999999995559, 17.98804119216021036 ) ) ;
#87 = PRODUCT_DEFINITION_FORMATION_WITH_SPECIFIED_SOURCE ( 'ANY', '', #12, .NOT_KNOWN. ) ;
#88 = ADVANCED_FACE ( 'NONE', ( #103 ), #118, .F. ) ;
#89 = CARTESIAN_POINT ( 'NONE',  ( 1.316288464743861212E-13, 1.499999999999998668, 37.69999999999999574 ) ) ;
#90 = CARTESIAN_POINT ( 'NONE',  ( 1.316288464743861212E-13, -4.616918432785521081E-15, 37.69999999999999574 ) ) ;
#91 = CC_DESIGN_PERSON_AND_ORGANIZATION_ASSIGNMENT ( #127, #197, ( #92 ) ) ;
#92 = SECURITY_CLASSIFICATION ( '', '', #108 ) ;
#93 = CARTESIAN_POINT ( 'NONE',  ( 0.0000000000000000000, 0.0000000000000000000, 0.0000000000000000000 ) ) ;
#94 = PERSON_AND_ORGANIZATION ( #79, #77 ) ;
#95 = EDGE_CURVE ( 'NONE', #35, #35, #265, .T. ) ;
#96 = DIRECTION ( 'NONE',  ( -3.491481338843133355E-15, 1.224646799147353207E-16, -1.000000000000000000 ) ) ;
#97 = CIRCLE ( 'NONE', #196, 0.5649999999999999467 ) ;
#98 = COORDINATED_UNIVERSAL_TIME_OFFSET ( 1, 0, .AHEAD. ) ;
#99 = FACE_OUTER_BOUND ( 'NONE', #28, .T. ) ;
#100 = APPLICATION_PROTOCOL_DEFINITION ( 'international standard', 'config_control_design', 1994, #300 ) ;
#101 = CARTESIAN_POINT ( 'NONE',  ( 1.326762908760390423E-13, -4.653657836759941941E-15, 38.00000000000000000 ) ) ;
#102 = PERSON_AND_ORGANIZATION_ROLE ( 'design_owner' ) ;
#103 = FACE_OUTER_BOUND ( 'NONE', #239, .T. ) ;
#104 = DATE_AND_TIME ( #31, #199 ) ;
#105 = CC_DESIGN_PERSON_AND_ORGANIZATION_ASSIGNMENT ( #9, #173, ( #87 ) ) ;
#106 = APPROVAL_ROLE ( '' ) ;
#107 = CIRCLE ( 'NONE', #223, 1.200000000000003286 ) ;
#108 = SECURITY_CLASSIFICATION_LEVEL ( 'unclassified' ) ;
#109 = CARTESIAN_POINT ( 'NONE',  ( 1.745740669421566678E-14, 4.236821386019738300E-33, 5.000000000000000000 ) ) ;
#110 = DIRECTION ( 'NONE',  ( 0.0000000000000000000, 1.000000000000000000, 0.0000000000000000000 ) ) ;
#111 = CARTESIAN_POINT ( 'NONE',  ( 4.189777606611760026E-14, 0.4749999999999984235, 12.00000000000000000 ) ) ;
#112 = ORIENTED_EDGE ( 'NONE', *, *, #221, .T. ) ;
#113 = PRODUCT_DEFINITION ( 'UNKNOWN', '', #87, #157 ) ;
#114 = ADVANCED_FACE ( 'NONE', ( #235, #119 ), #117, .T. ) ;
#115 = ORIENTED_EDGE ( 'NONE', *, *, #270, .T. ) ;
#116 = AXIS2_PLACEMENT_3D ( 'NONE', #188, #289, #166 ) ;
#117 = CYLINDRICAL_SURFACE ( 'NONE', #164, 0.4749999999999995337 ) ;
#118 = PLANE ( 'NONE',  #252 ) ;
#119 = FACE_OUTER_BOUND ( 'NONE', #177, .T. ) ;
#120 = AXIS2_PLACEMENT_3D ( 'NONE', #30, #56, #219 ) ;
#121 = CARTESIAN_POINT ( 'NONE',  ( 1.800167477074562071E-14, -6.314137538707253535E-16, 5.155884572681202371 ) ) ;
#122 = ORIENTED_EDGE ( 'NONE', *, *, #33, .F. ) ;
#123 = CALENDAR_DATE ( 2021, 1, 12 ) ;
#124 = DIRECTION ( 'NONE',  ( -3.491481338843133355E-15, 1.224646799147353207E-16, -1.000000000000000000 ) ) ;
#125 = AXIS2_PLACEMENT_3D ( 'NONE', #75, #285, #48 ) ;
#126 = AXIS2_PLACEMENT_3D ( 'NONE', #4, #210, #52 ) ;
#127 = PERSON_AND_ORGANIZATION ( #79, #77 ) ;
#128 = PERSON_AND_ORGANIZATION ( #79, #77 ) ;
#129 = DATE_AND_TIME ( #32, #179 ) ;
#130 = AXIS2_PLACEMENT_3D ( 'NONE', #74, #144, #45 ) ;
#131 = PLANE ( 'NONE',  #1 ) ;
#132 = VERTEX_POINT ( 'NONE', #225 ) ;
#133 = EDGE_LOOP ( 'NONE', ( #112 ) ) ;
#134 = CIRCLE ( 'NONE', #228, 0.5053844939755813837 ) ;
#135 = CARTESIAN_POINT ( 'NONE',  ( 1.326762908760390423E-13, 1.199999999999998845, 38.00000000000000000 ) ) ;
#136 = FACE_OUTER_BOUND ( 'NONE', #133, .T. ) ;
#137 = EDGE_LOOP ( 'NONE', ( #141 ) ) ;
#138 = CARTESIAN_POINT ( 'NONE',  ( -1.845708742120215354E-31, 6.473874793627710414E-33, -5.286319939867620651E-17 ) ) ;
#139 = ORIENTED_EDGE ( 'NONE', *, *, #187, .F. ) ;
#140 = CARTESIAN_POINT ( 'NONE',  ( 1.745740669421566678E-14, 4.236821386019738300E-33, 5.000000000000000000 ) ) ;
#141 = ORIENTED_EDGE ( 'NONE', *, *, #5, .T. ) ;
#142 = MANIFOLD_SOLID_BREP ( 'Corps-Déplacer/Copier1[1]', #217 ) ;
#143 = CARTESIAN_POINT ( 'NONE',  ( 1.745740669421566678E-14, -6.123233995736766282E-16, 5.000000000000000000 ) ) ;
#144 = DIRECTION ( 'NONE',  ( -3.491481338843133355E-15, 1.224646799147353207E-16, -1.000000000000000000 ) ) ;
#145 = DIRECTION ( 'NONE',  ( -3.491481338843133355E-15, 1.224646799147353207E-16, -1.000000000000000000 ) ) ;
#146 = EDGE_LOOP ( 'NONE', ( #204 ) ) ;
#147 = CC_DESIGN_DATE_AND_TIME_ASSIGNMENT ( #247, #218, ( #113 ) ) ;
#148 = APPROVAL ( #83, 'UNSPECIFIED' ) ;
#149 = DIRECTION ( 'NONE',  ( 0.0000000000000000000, 1.000000000000000000, 0.0000000000000000000 ) ) ;
#150 = ORIENTED_EDGE ( 'NONE', *, *, #58, .T. ) ;
#151 = COORDINATED_UNIVERSAL_TIME_OFFSET ( 1, 0, .AHEAD. ) ;
#152 = DIRECTION ( 'NONE',  ( 3.491481338843133355E-15, -1.224646799147353207E-16, 1.000000000000000000 ) ) ;
#153 = AXIS2_PLACEMENT_3D ( 'NONE', #165, #124, #294 ) ;
#154 = APPROVAL_STATUS ( 'not_yet_approved' ) ;
#155 = APPROVAL ( #154, 'UNSPECIFIED' ) ;
#156 = CARTESIAN_POINT ( 'NONE',  ( 8.728703347107833388E-16, 0.5649999999999992806, 0.2500000000000000000 ) ) ;
#157 = DESIGN_CONTEXT ( 'detailed design', #194, 'design' ) ;
#158 = DIRECTION ( 'NONE',  ( 3.491481338843133355E-15, -1.224646799147353207E-16, 1.000000000000000000 ) ) ;
#159 = ADVANCED_FACE ( 'NONE', ( #287, #264 ), #170, .T. ) ;
#160 = AXIS2_PLACEMENT_3D ( 'NONE', #143, #145, #149 ) ;
#161 = DIRECTION ( 'NONE',  ( -3.491481338843133355E-15, 1.224646799147353207E-16, -1.000000000000000000 ) ) ;
#162 = CARTESIAN_POINT ( 'NONE',  ( 1.745740669421566678E-14, -6.123233995736766282E-16, 5.000000000000000000 ) ) ;
#163 = ORIENTED_EDGE ( 'NONE', *, *, #278, .F. ) ;
#164 = AXIS2_PLACEMENT_3D ( 'NONE', #190, #301, #168 ) ;
#165 = CARTESIAN_POINT ( 'NONE',  ( 4.189777606611760026E-14, -1.301042606982605321E-15, 12.00000000000000000 ) ) ;
#166 = DIRECTION ( 'NONE',  ( 0.0000000000000000000, 1.000000000000000000, 0.0000000000000000000 ) ) ;
#167 = ADVANCED_FACE ( 'NONE', ( #182, #281 ), #205, .F. ) ;
#168 = DIRECTION ( 'NONE',  ( 4.275831445896957731E-31, 1.000000000000000000, 1.224646799147353207E-16 ) ) ;
#169 = AXIS2_PLACEMENT_3D ( 'NONE', #90, #43, #63 ) ;
#170 = CYLINDRICAL_SURFACE ( 'NONE', #243, 1.500000000000000444 ) ;
#171 = SHAPE_DEFINITION_REPRESENTATION ( #290, #274 ) ;
#172 = CALENDAR_DATE ( 2021, 1, 12 ) ;
#173 = PERSON_AND_ORGANIZATION_ROLE ( 'design_supplier' ) ;
#174 = CIRCLE ( 'NONE', #169, 1.500000000000003331 ) ;
#175 = EDGE_LOOP ( 'NONE', ( #36 ) ) ;
#176 = VERTEX_POINT ( 'NONE', #42 ) ;
#177 = EDGE_LOOP ( 'NONE', ( #150 ) ) ;
#178 = AXIS2_PLACEMENT_3D ( 'NONE', #260, #215, #284 ) ;
#179 = LOCAL_TIME ( 11, 40, 15.00000000000000000, #291 ) ;
#180 = ORIENTED_EDGE ( 'NONE', *, *, #208, .T. ) ;
#181 = EDGE_LOOP ( 'NONE', ( #24 ) ) ;
#182 = FACE_OUTER_BOUND ( 'NONE', #64, .T. ) ;
#183 = DATE_AND_TIME ( #241, #62 ) ;
#184 = AXIS2_PLACEMENT_3D ( 'NONE', #6, #78, #7 ) ;
#185 = EDGE_LOOP ( 'NONE', ( #163 ) ) ;
#186 = ADVANCED_FACE ( 'NONE', ( #71, #195 ), #282, .T. ) ;
#187 = EDGE_CURVE ( 'NONE', #229, #229, #174, .T. ) ;
#188 = CARTESIAN_POINT ( 'NONE',  ( 1.326762908760390423E-13, -4.653657836759941941E-15, 38.00000000000000000 ) ) ;
#189 = PERSON_AND_ORGANIZATION_ROLE ( 'creator' ) ;
#190 = CARTESIAN_POINT ( 'NONE',  ( 0.0000000000000000000, 0.0000000000000000000, 0.0000000000000000000 ) ) ;
#191 = ORIENTED_EDGE ( 'NONE', *, *, #95, .T. ) ;
#192 = ADVANCED_FACE ( 'NONE', ( #136 ), #20, .F. ) ;
#193 = PERSON_AND_ORGANIZATION_ROLE ( 'creator' ) ;
#194 = APPLICATION_CONTEXT ( 'configuration controlled 3d designs of mechanical parts and assemblies' ) ;
#195 = FACE_OUTER_BOUND ( 'NONE', #15, .T. ) ;
#196 = AXIS2_PLACEMENT_3D ( 'NONE', #162, #161, #256 ) ;
#197 = PERSON_AND_ORGANIZATION_ROLE ( 'classification_officer' ) ;
#198 = CC_DESIGN_DATE_AND_TIME_ASSIGNMENT ( #82, #293, ( #92 ) ) ;
#199 = LOCAL_TIME ( 11, 40, 15.00000000000000000, #81 ) ;
#200 = VERTEX_POINT ( 'NONE', #135 ) ;
#201 = ORIENTED_EDGE ( 'NONE', *, *, #58, .F. ) ;
#202 = CARTESIAN_POINT ( 'NONE',  ( 1.326762908760390423E-13, 8.998558695971103225E-33, 38.00000000000000000 ) ) ;
#203 = CARTESIAN_POINT ( 'NONE',  ( 4.311035480981395782E-14, -1.512107695968337463E-15, 12.34729635533384595 ) ) ;
#204 = ORIENTED_EDGE ( 'NONE', *, *, #69, .T. ) ;
#205 = TOROIDAL_SURFACE ( 'NONE', #153, 2.475000000000000089, 2.000000000000000444 ) ;
#206 =( GEOMETRIC_REPRESENTATION_CONTEXT ( 3 ) GLOBAL_UNCERTAINTY_ASSIGNED_CONTEXT ( ( #80 ) ) GLOBAL_UNIT_ASSIGNED_CONTEXT ( ( #207, #283, #8 ) ) REPRESENTATION_CONTEXT ( 'NONE', 'WORKASPACE' ) );
#207 =( LENGTH_UNIT ( ) NAMED_UNIT ( * ) SI_UNIT ( .MILLI., .METRE. ) );
#208 = EDGE_CURVE ( 'NONE', #132, #132, #248, .T. ) ;
#209 = FACE_BOUND ( 'NONE', #146, .T. ) ;
#210 = DIRECTION ( 'NONE',  ( 0.0000000000000000000, 0.0000000000000000000, 1.000000000000000000 ) ) ;
#211 = DIRECTION ( 'NONE',  ( 0.0000000000000000000, 1.000000000000000000, 0.0000000000000000000 ) ) ;
#212 = ADVANCED_FACE ( 'NONE', ( #236, #286 ), #213, .T. ) ;
#213 = CONICAL_SURFACE ( 'NONE', #17, 0.5649999999999992806, 0.5235987755982922653 ) ;
#214 = EDGE_LOOP ( 'NONE', ( #237 ) ) ;
#215 = DIRECTION ( 'NONE',  ( -3.491481338843133355E-15, 1.224646799147353207E-16, -1.000000000000000000 ) ) ;
#216 = EDGE_LOOP ( 'NONE', ( #66 ) ) ;
#217 = CLOSED_SHELL ( 'NONE', ( #88, #70, #114, #167, #186, #159, #27, #269 ) ) ;
#218 = DATE_TIME_ROLE ( 'creation_date' ) ;
#219 = DIRECTION ( 'NONE',  ( 4.275831445896958607E-31, 1.000000000000000000, 1.224646799147353454E-16 ) ) ;
#220 = PERSON_AND_ORGANIZATION ( #79, #77 ) ;
#221 = EDGE_CURVE ( 'NONE', #253, #253, #232, .T. ) ;
#222 = COORDINATED_UNIVERSAL_TIME_OFFSET ( 1, 0, .AHEAD. ) ;
#223 = AXIS2_PLACEMENT_3D ( 'NONE', #101, #96, #211 ) ;
#224 = FACE_OUTER_BOUND ( 'NONE', #181, .T. ) ;
#225 = CARTESIAN_POINT ( 'NONE',  ( 1.745740669421566678E-14, 0.5649999999999992806, 5.000000000000000000 ) ) ;
#226 = EDGE_LOOP ( 'NONE', ( #276 ) ) ;
#227 = PRODUCT_RELATED_PRODUCT_CATEGORY ( 'detail', '', ( #12 ) ) ;
#228 = AXIS2_PLACEMENT_3D ( 'NONE', #203, #16, #110 ) ;
#229 = VERTEX_POINT ( 'NONE', #89 ) ;
#230 = EDGE_LOOP ( 'NONE', ( #68 ) ) ;
#231 = DIRECTION ( 'NONE',  ( 3.491481338843133355E-15, -1.224646799147353207E-16, 1.000000000000000000 ) ) ;
#232 = CIRCLE ( 'NONE', #120, 0.4206624327025950127 ) ;
#233 = CC_DESIGN_APPROVAL ( #3, ( #113 ) ) ;
#234 = CC_DESIGN_SECURITY_CLASSIFICATION ( #92, ( #87 ) ) ;
#235 = FACE_OUTER_BOUND ( 'NONE', #216, .T. ) ;
#236 = FACE_BOUND ( 'NONE', #226, .T. ) ;
#237 = ORIENTED_EDGE ( 'NONE', *, *, #33, .T. ) ;
#238 = ORIENTED_EDGE ( 'NONE', *, *, #187, .T. ) ;
#239 = EDGE_LOOP ( 'NONE', ( #180 ) ) ;
#240 = DIRECTION ( 'NONE',  ( -3.491481338843133355E-15, 1.224646799147353207E-16, -1.000000000000000000 ) ) ;
#241 = CALENDAR_DATE ( 2021, 1, 12 ) ;
#242 = DIRECTION ( 'NONE',  ( -3.408725565287147443E-31, -1.000000000000000000, -9.594709491022175350E-17 ) ) ;
#243 = AXIS2_PLACEMENT_3D ( 'NONE', #93, #47, #266 ) ;
#244 = MANIFOLD_SOLID_BREP ( 'Corps-Déplacer/Copier1[2]', #60 ) ;
#245 = APPROVAL_ROLE ( '' ) ;
#246 = ADVANCED_FACE ( 'NONE', ( #10, #61 ), #275, .T. ) ;
#247 = DATE_AND_TIME ( #123, #46 ) ;
#248 = CIRCLE ( 'NONE', #160, 0.5649999999999999467 ) ;
#249 = VERTEX_POINT ( 'NONE', #111 ) ;
#250 = VERTEX_POINT ( 'NONE', #296 ) ;
#251 = VERTEX_POINT ( 'NONE', #156 ) ;
#252 = AXIS2_PLACEMENT_3D ( 'NONE', #140, #26, #258 ) ;
#253 = VERTEX_POINT ( 'NONE', #19 ) ;
#254 = CC_DESIGN_PERSON_AND_ORGANIZATION_ASSIGNMENT ( #29, #189, ( #113 ) ) ;
#255 = CC_DESIGN_PERSON_AND_ORGANIZATION_ASSIGNMENT ( #128, #193, ( #87 ) ) ;
#256 = DIRECTION ( 'NONE',  ( 0.0000000000000000000, 1.000000000000000000, 0.0000000000000000000 ) ) ;
#257 = ORIENTED_EDGE ( 'NONE', *, *, #208, .F. ) ;
#258 = DIRECTION ( 'NONE',  ( -4.275831445896958607E-31, -1.000000000000000000, -1.224646799147353207E-16 ) ) ;
#259 = APPROVAL_PERSON_ORGANIZATION ( #11, #155, #245 ) ;
#260 = CARTESIAN_POINT ( 'NONE',  ( 8.728703347107831416E-16, -3.061616997868382402E-17, 0.2499999999999999445 ) ) ;
#261 = APPROVAL_DATE_TIME ( #183, #3 ) ;
#262 = FACE_OUTER_BOUND ( 'NONE', #44, .T. ) ;
#263 = APPROVAL_STATUS ( 'not_yet_approved' ) ;
#264 = FACE_OUTER_BOUND ( 'NONE', #38, .T. ) ;
#265 = CIRCLE ( 'NONE', #130, 1.499999999999997558 ) ;
#266 = DIRECTION ( 'NONE',  ( 4.275831445896958607E-31, 1.000000000000000000, 1.224646799147353207E-16 ) ) ;
#267 = APPROVAL_ROLE ( '' ) ;
#268 = CARTESIAN_POINT ( 'NONE',  ( 8.728703347107831416E-16, -3.061616997868382402E-17, 0.2499999999999999445 ) ) ;
#269 = ADVANCED_FACE ( 'NONE', ( #224 ), #39, .F. ) ;
#270 = EDGE_CURVE ( 'NONE', #176, #176, #134, .T. ) ;
#271 = AXIS2_PLACEMENT_3D ( 'NONE', #272, #273, #298 ) ;
#272 = CARTESIAN_POINT ( 'NONE',  ( 6.280491014476895838E-14, -2.202899706890974152E-15, 17.98804119216021036 ) ) ;
#273 = DIRECTION ( 'NONE',  ( 3.491481338843133355E-15, -1.224646799147353207E-16, 1.000000000000000000 ) ) ;
#274 = ADVANCED_BREP_SHAPE_REPRESENTATION ( '327012', ( #142, #244, #126 ), #206 ) ;
#275 = CYLINDRICAL_SURFACE ( 'NONE', #292, 0.5649999999999996136 ) ;
#276 = ORIENTED_EDGE ( 'NONE', *, *, #221, .F. ) ;
#277 = DIRECTION ( 'NONE',  ( 4.275831445896958607E-31, 1.000000000000000000, 1.224646799147353207E-16 ) ) ;
#278 = EDGE_CURVE ( 'NONE', #299, #299, #97, .T. ) ;
#279 = DIRECTION ( 'NONE',  ( -4.275831445896958607E-31, -1.000000000000000000, -1.224646799147353207E-16 ) ) ;
#280 = DIRECTION ( 'NONE',  ( -4.275831445896958607E-31, -1.000000000000000000, -1.224646799147353207E-16 ) ) ;
#281 = FACE_OUTER_BOUND ( 'NONE', #50, .T. ) ;
#282 = CONICAL_SURFACE ( 'NONE', #271, 1.499999999999997558, 0.1745329251994261477 ) ;
#283 =( NAMED_UNIT ( * ) PLANE_ANGLE_UNIT ( ) SI_UNIT ( $, .RADIAN. ) );
#284 = DIRECTION ( 'NONE',  ( 3.408725565287147443E-31, 1.000000000000000000, 9.594709491022175350E-17 ) ) ;
#285 = DIRECTION ( 'NONE',  ( -3.491481338843133355E-15, 1.224646799147353207E-16, -1.000000000000000000 ) ) ;
#286 = FACE_OUTER_BOUND ( 'NONE', #214, .T. ) ;
#287 = FACE_OUTER_BOUND ( 'NONE', #175, .T. ) ;
#288 = CONICAL_SURFACE ( 'NONE', #125, 0.4749999999999992006, 0.5235987755982937086 ) ;
#289 = DIRECTION ( 'NONE',  ( -3.491481338843133355E-15, 1.224646799147353207E-16, -1.000000000000000000 ) ) ;
#290 = PRODUCT_DEFINITION_SHAPE ( 'NONE', 'NONE',  #113 ) ;
#291 = COORDINATED_UNIVERSAL_TIME_OFFSET ( 1, 0, .AHEAD. ) ;
#292 = AXIS2_PLACEMENT_3D ( 'NONE', #84, #37, #14 ) ;
#293 = DATE_TIME_ROLE ( 'classification_date' ) ;
#294 = DIRECTION ( 'NONE',  ( 4.275831445896958607E-31, 1.000000000000000000, 1.224646799147353207E-16 ) ) ;
#295 = DIRECTION ( 'NONE',  ( -3.491481338843133355E-15, 1.224646799147353207E-16, -1.000000000000000000 ) ) ;
#296 = CARTESIAN_POINT ( 'NONE',  ( 1.800167477074562071E-14, 0.4749999999999985345, 5.155884572681202371 ) ) ;
#297 = ADVANCED_FACE ( 'NONE', ( #65 ), #131, .T. ) ;
#298 = DIRECTION ( 'NONE',  ( 0.0000000000000000000, -1.000000000000000000, 0.0000000000000000000 ) ) ;
#299 = VERTEX_POINT ( 'NONE', #21 ) ;
#300 = APPLICATION_CONTEXT ( 'configuration controlled 3d designs of mechanical parts and assemblies' ) ;
#301 = DIRECTION ( 'NONE',  ( -3.491481338843133355E-15, 1.224646799147353207E-16, -1.000000000000000000 ) ) ;
#302 = MECHANICAL_CONTEXT ( 'NONE', #300, 'mechanical' ) ;
#303 = EDGE_LOOP ( 'NONE', ( #122 ) ) ;
ENDSEC;
END-ISO-10303-21;
