ISO-10303-21;
HEADER;
FILE_DESCRIPTION (( 'STEP AP203' ),
    '1' );
FILE_NAME ('327011.step',
    '2021-12-01T10:40:15',
    ( '' ),
    ( '' ),
    'SwSTEP 2.0',
    'SolidWorks 2019',
    '' );
FILE_SCHEMA (( 'CONFIG_CONTROL_DESIGN' ));
ENDSEC;

DATA;
#1 = DIRECTION ( 'NONE',  ( 0.0000000000000000000, 1.000000000000000000, 0.0000000000000000000 ) ) ;
#2 = CARTESIAN_POINT ( 'NONE',  ( 4.189777606611760026E-14, -1.469576158976823947E-15, 12.00000000000000000 ) ) ;
#3 = DIRECTION ( 'NONE',  ( 4.275831445896958607E-31, 1.000000000000000000, 1.224646799147353207E-16 ) ) ;
#4 = APPROVAL_ROLE ( '' ) ;
#5 = EDGE_CURVE ( 'NONE', #195, #195, #213, .T. ) ;
#6 = AXIS2_PLACEMENT_3D ( 'NONE', #22, #232, #65 ) ;
#7 = LOCAL_TIME ( 11, 40, 15.00000000000000000, #125 ) ;
#8 = PERSON_AND_ORGANIZATION ( #132, #291 ) ;
#9 = ORIENTED_EDGE ( 'NONE', *, *, #5, .F. ) ;
#10 = AXIS2_PLACEMENT_3D ( 'NONE', #204, #299, #89 ) ;
#11 = CONICAL_SURFACE ( 'NONE', #72, 0.4749999999999992006, 0.5235987755982937086 ) ;
#12 = PERSON_AND_ORGANIZATION ( #132, #291 ) ;
#13 = EDGE_LOOP ( 'NONE', ( #58 ) ) ;
#14 = VERTEX_POINT ( 'NONE', #137 ) ;
#15 = ORIENTED_EDGE ( 'NONE', *, *, #115, .T. ) ;
#16 = ORIENTED_EDGE ( 'NONE', *, *, #260, .F. ) ;
#17 = PRODUCT ( '327011', '327011', '', ( #27 ) ) ;
#18 = EDGE_LOOP ( 'NONE', ( #203 ) ) ;
#19 = DIRECTION ( 'NONE',  ( -3.491481338843133355E-15, 1.224646799147353207E-16, -1.000000000000000000 ) ) ;
#20 = DIRECTION ( 'NONE',  ( -4.275831445896958607E-31, -1.000000000000000000, -1.224646799147353207E-16 ) ) ;
#21 = AXIS2_PLACEMENT_3D ( 'NONE', #278, #249, #62 ) ;
#22 = CARTESIAN_POINT ( 'NONE',  ( -1.835019163505472778E-31, 6.436380799061163700E-33, -5.255703769888936272E-17 ) ) ;
#23 = CARTESIAN_POINT ( 'NONE',  ( -3.670038327010945556E-31, 1.287276159812232740E-32, -1.051140753977787254E-16 ) ) ;
#24 = PERSON_AND_ORGANIZATION ( #132, #291 ) ;
#25 = CARTESIAN_POINT ( 'NONE',  ( 1.745740669421566678E-14, -6.123233995736766282E-16, 5.000000000000000000 ) ) ;
#26 = APPROVAL_PERSON_ORGANIZATION ( #24, #301, #211 ) ;
#27 = MECHANICAL_CONTEXT ( 'NONE', #180, 'mechanical' ) ;
#28 = APPROVAL_STATUS ( 'not_yet_approved' ) ;
#29 = CIRCLE ( 'NONE', #214, 1.500000000000003331 ) ;
#30 = CALENDAR_DATE ( 2021, 1, 12 ) ;
#31 = ADVANCED_FACE ( 'NONE', ( #182, #134 ), #237, .F. ) ;
#32 = EDGE_LOOP ( 'NONE', ( #82 ) ) ;
#33 = COORDINATED_UNIVERSAL_TIME_OFFSET ( 1, 0, .AHEAD. ) ;
#34 = CARTESIAN_POINT ( 'NONE',  ( 4.311035480981395782E-14, -1.512107695968337463E-15, 12.34729635533384595 ) ) ;
#35 = AXIS2_PLACEMENT_3D ( 'NONE', #210, #68, #205 ) ;
#36 = ORIENTED_EDGE ( 'NONE', *, *, #48, .T. ) ;
#37 = ADVANCED_FACE ( 'NONE', ( #224, #244 ), #103, .T. ) ;
#38 = EDGE_LOOP ( 'NONE', ( #222 ) ) ;
#39 = VERTEX_POINT ( 'NONE', #133 ) ;
#40 = EDGE_LOOP ( 'NONE', ( #131 ) ) ;
#41 = EDGE_LOOP ( 'NONE', ( #59 ) ) ;
#42 = EDGE_LOOP ( 'NONE', ( #295 ) ) ;
#43 = FACE_OUTER_BOUND ( 'NONE', #179, .T. ) ;
#44 = DIRECTION ( 'NONE',  ( 4.275831445896958607E-31, 1.000000000000000000, 1.224646799147353207E-16 ) ) ;
#45 = PLANE ( 'NONE',  #175 ) ;
#46 = CIRCLE ( 'NONE', #216, 0.4749999999999998668 ) ;
#47 = PLANE ( 'NONE',  #77 ) ;
#48 = EDGE_CURVE ( 'NONE', #289, #289, #147, .T. ) ;
#49 = DIRECTION ( 'NONE',  ( -3.491481338843133355E-15, 1.224646799147353207E-16, -1.000000000000000000 ) ) ;
#50 = PERSON_AND_ORGANIZATION_ROLE ( 'creator' ) ;
#51 = CALENDAR_DATE ( 2021, 1, 12 ) ;
#52 = AXIS2_PLACEMENT_3D ( 'NONE', #282, #165, #121 ) ;
#53 = CARTESIAN_POINT ( 'NONE',  ( 4.189777606611760026E-14, 0.4749999999999984235, 12.00000000000000000 ) ) ;
#54 = PLANE ( 'NONE',  #302 ) ;
#55 = ADVANCED_FACE ( 'NONE', ( #57, #127 ), #111, .T. ) ;
#56 = EDGE_LOOP ( 'NONE', ( #15 ) ) ;
#57 = FACE_OUTER_BOUND ( 'NONE', #42, .T. ) ;
#58 = ORIENTED_EDGE ( 'NONE', *, *, #260, .T. ) ;
#59 = ORIENTED_EDGE ( 'NONE', *, *, #48, .F. ) ;
#60 = CIRCLE ( 'NONE', #52, 0.4749999999999992006 ) ;
#61 = CC_DESIGN_PERSON_AND_ORGANIZATION_ASSIGNMENT ( #186, #122, ( #17 ) ) ;
#62 = DIRECTION ( 'NONE',  ( 0.0000000000000000000, -1.000000000000000000, 0.0000000000000000000 ) ) ;
#63 = DIRECTION ( 'NONE',  ( -3.439160614977210509E-31, -1.000000000000000000, -9.680376540049156945E-17 ) ) ;
#64 = CC_DESIGN_PERSON_AND_ORGANIZATION_ASSIGNMENT ( #196, #239, ( #296 ) ) ;
#65 = DIRECTION ( 'NONE',  ( -4.275831445896958607E-31, -1.000000000000000000, -1.224646799147353207E-16 ) ) ;
#66 = AXIS2_PLACEMENT_3D ( 'NONE', #284, #49, #95 ) ;
#67 = PERSON_AND_ORGANIZATION ( #132, #291 ) ;
#68 = DIRECTION ( 'NONE',  ( -3.491481338843133355E-15, 1.224646799147353207E-16, -1.000000000000000000 ) ) ;
#69 = DIRECTION ( 'NONE',  ( -3.491481338843133355E-15, 1.224646799147353207E-16, -1.000000000000000000 ) ) ;
#70 = PRODUCT_RELATED_PRODUCT_CATEGORY ( 'detail', '', ( #17 ) ) ;
#71 = MANIFOLD_SOLID_BREP ( 'Corps-Déplacer/Copier1[1]', #163 ) ;
#72 = AXIS2_PLACEMENT_3D ( 'NONE', #191, #69, #300 ) ;
#73 = COORDINATED_UNIVERSAL_TIME_OFFSET ( 1, 0, .AHEAD. ) ;
#74 = CALENDAR_DATE ( 2021, 1, 12 ) ;
#75 = CC_DESIGN_DATE_AND_TIME_ASSIGNMENT ( #128, #171, ( #296 ) ) ;
#76 = SHAPE_DEFINITION_REPRESENTATION ( #181, #253 ) ;
#77 = AXIS2_PLACEMENT_3D ( 'NONE', #142, #113, #44 ) ;
#78 = APPROVAL_ROLE ( '' ) ;
#79 = ADVANCED_FACE ( 'NONE', ( #220 ), #54, .F. ) ;
#80 = CARTESIAN_POINT ( 'NONE',  ( 1.326762908760390423E-13, -4.653657836759941941E-15, 38.00000000000000000 ) ) ;
#81 = CALENDAR_DATE ( 2021, 1, 12 ) ;
#82 = ORIENTED_EDGE ( 'NONE', *, *, #100, .T. ) ;
#83 = CARTESIAN_POINT ( 'NONE',  ( 6.280491014476895838E-14, 1.499999999999995559, 17.98804119216021036 ) ) ;
#84 = CIRCLE ( 'NONE', #66, 0.5599999999999993872 ) ;
#85 = ORIENTED_EDGE ( 'NONE', *, *, #219, .T. ) ;
#86 = APPROVAL_PERSON_ORGANIZATION ( #288, #285, #4 ) ;
#87 = DIRECTION ( 'NONE',  ( 1.000000000000000000, 0.0000000000000000000, 0.0000000000000000000 ) ) ;
#88 = DIRECTION ( 'NONE',  ( 4.275831445896958607E-31, 1.000000000000000000, 1.224646799147353207E-16 ) ) ;
#89 = DIRECTION ( 'NONE',  ( 4.275831445896958607E-31, 1.000000000000000000, 1.224646799147353207E-16 ) ) ;
#90 = CARTESIAN_POINT ( 'NONE',  ( 1.316288464743861212E-13, -4.616918432785521081E-15, 37.69999999999999574 ) ) ;
#91 = AXIS2_PLACEMENT_3D ( 'NONE', #212, #19, #3 ) ;
#92 = ADVANCED_FACE ( 'NONE', ( #174, #93 ), #117, .T. ) ;
#93 = FACE_OUTER_BOUND ( 'NONE', #197, .T. ) ;
#94 = APPLICATION_PROTOCOL_DEFINITION ( 'international standard', 'config_control_design', 1994, #180 ) ;
#95 = DIRECTION ( 'NONE',  ( 3.439160614977210509E-31, 1.000000000000000000, 9.680376540049156945E-17 ) ) ;
#96 = FACE_OUTER_BOUND ( 'NONE', #40, .T. ) ;
#97 = APPROVAL_PERSON_ORGANIZATION ( #12, #166, #78 ) ;
#98 = COORDINATED_UNIVERSAL_TIME_OFFSET ( 1, 0, .AHEAD. ) ;
#99 = CYLINDRICAL_SURFACE ( 'NONE', #91, 0.5599999999999997202 ) ;
#100 = EDGE_CURVE ( 'NONE', #294, #294, #114, .T. ) ;
#101 = CIRCLE ( 'NONE', #270, 0.4156624327025950083 ) ;
#102 = PERSON_AND_ORGANIZATION_ROLE ( 'design_supplier' ) ;
#103 = CONICAL_SURFACE ( 'NONE', #247, 1.200000000000003286, 0.7853981633974453924 ) ;
#104 =( NAMED_UNIT ( * ) SI_UNIT ( $, .STERADIAN. ) SOLID_ANGLE_UNIT ( ) );
#105 = ORIENTED_EDGE ( 'NONE', *, *, #199, .F. ) ;
#106 = ADVANCED_FACE ( 'NONE', ( #146, #236 ), #154, .T. ) ;
#107 = ORIENTED_EDGE ( 'NONE', *, *, #126, .F. ) ;
#108 = EDGE_LOOP ( 'NONE', ( #107 ) ) ;
#109 = EDGE_LOOP ( 'NONE', ( #36 ) ) ;
#110 = EDGE_LOOP ( 'NONE', ( #156 ) ) ;
#111 = CYLINDRICAL_SURFACE ( 'NONE', #10, 1.500000000000000444 ) ;
#112 = FACE_BOUND ( 'NONE', #246, .T. ) ;
#113 = DIRECTION ( 'NONE',  ( -3.491481338843133355E-15, 1.224646799147353207E-16, -1.000000000000000000 ) ) ;
#114 = CIRCLE ( 'NONE', #286, 1.499999999999997558 ) ;
#115 = EDGE_CURVE ( 'NONE', #39, #39, #167, .T. ) ;
#116 = DIRECTION ( 'NONE',  ( 0.0000000000000000000, 1.000000000000000000, 0.0000000000000000000 ) ) ;
#117 = CYLINDRICAL_SURFACE ( 'NONE', #35, 0.4749999999999995337 ) ;
#118 = APPROVAL_DATE_TIME ( #283, #285 ) ;
#119 = PLANE ( 'NONE',  #6 ) ;
#120 = AXIS2_PLACEMENT_3D ( 'NONE', #303, #144, #63 ) ;
#121 = DIRECTION ( 'NONE',  ( 0.0000000000000000000, 1.000000000000000000, 0.0000000000000000000 ) ) ;
#122 = PERSON_AND_ORGANIZATION_ROLE ( 'design_owner' ) ;
#123 = PRODUCT_DEFINITION ( 'UNKNOWN', '', #207, #151 ) ;
#124 =( GEOMETRIC_REPRESENTATION_CONTEXT ( 3 ) GLOBAL_UNCERTAINTY_ASSIGNED_CONTEXT ( ( #274 ) ) GLOBAL_UNIT_ASSIGNED_CONTEXT ( ( #215, #266, #104 ) ) REPRESENTATION_CONTEXT ( 'NONE', 'WORKASPACE' ) );
#125 = COORDINATED_UNIVERSAL_TIME_OFFSET ( 1, 0, .AHEAD. ) ;
#126 = EDGE_CURVE ( 'NONE', #14, #14, #101, .T. ) ;
#127 = FACE_OUTER_BOUND ( 'NONE', #202, .T. ) ;
#128 = DATE_AND_TIME ( #30, #7 ) ;
#129 = AXIS2_PLACEMENT_3D ( 'NONE', #80, #172, #177 ) ;
#130 = AXIS2_PLACEMENT_3D ( 'NONE', #272, #178, #87 ) ;
#131 = ORIENTED_EDGE ( 'NONE', *, *, #219, .F. ) ;
#132 = PERSON ( 'UNSPECIFIED', 'UNSPECIFIED', 'UNSPECIFIED', ('UNSPECIFIED'), ('UNSPECIFIED'), ('UNSPECIFIED') ) ;
#133 = CARTESIAN_POINT ( 'NONE',  ( 1.745740669421566678E-14, 0.5599999999999993872, 5.000000000000000000 ) ) ;
#134 = FACE_OUTER_BOUND ( 'NONE', #18, .T. ) ;
#135 = CC_DESIGN_PERSON_AND_ORGANIZATION_ASSIGNMENT ( #243, #102, ( #207 ) ) ;
#136 = ORIENTED_EDGE ( 'NONE', *, *, #251, .T. ) ;
#137 = CARTESIAN_POINT ( 'NONE',  ( -1.892735826383161137E-31, 0.4156624327025950083, -5.421010862427521554E-17 ) ) ;
#138 = DIRECTION ( 'NONE',  ( -3.491481338843133355E-15, 1.224646799147353207E-16, -1.000000000000000000 ) ) ;
#139 = FACE_OUTER_BOUND ( 'NONE', #13, .T. ) ;
#140 = DIRECTION ( 'NONE',  ( -3.491481338843133355E-15, 1.224646799147353207E-16, -1.000000000000000000 ) ) ;
#141 = CARTESIAN_POINT ( 'NONE',  ( 8.728703347107833388E-16, 0.5599999999999993872, 0.2500000000000000000 ) ) ;
#142 = CARTESIAN_POINT ( 'NONE',  ( 1.326762908760390423E-13, 8.998558695971103225E-33, 38.00000000000000000 ) ) ;
#143 = VERTEX_POINT ( 'NONE', #141 ) ;
#144 = DIRECTION ( 'NONE',  ( 3.491481338843133355E-15, -1.224646799147353207E-16, 1.000000000000000000 ) ) ;
#145 = CARTESIAN_POINT ( 'NONE',  ( 1.316288464743861212E-13, 1.499999999999998668, 37.69999999999999574 ) ) ;
#146 = FACE_BOUND ( 'NONE', #242, .T. ) ;
#147 = CIRCLE ( 'NONE', #129, 1.200000000000003286 ) ;
#148 = CARTESIAN_POINT ( 'NONE',  ( 1.797143765538284567E-14, 0.4749999999999985345, 5.147224318643358387 ) ) ;
#149 = COORDINATED_UNIVERSAL_TIME_OFFSET ( 1, 0, .AHEAD. ) ;
#150 = APPROVAL_STATUS ( 'not_yet_approved' ) ;
#151 = DESIGN_CONTEXT ( 'detailed design', #254, 'design' ) ;
#152 = APPROVAL_DATE_TIME ( #173, #301 ) ;
#153 = CARTESIAN_POINT ( 'NONE',  ( 1.745740669421566678E-14, 4.199327391453192954E-33, 5.000000000000000000 ) ) ;
#154 = CONICAL_SURFACE ( 'NONE', #21, 1.499999999999997558, 0.1745329251994261477 ) ;
#155 = DIRECTION ( 'NONE',  ( -3.491481338843133355E-15, 1.224646799147353207E-16, -1.000000000000000000 ) ) ;
#156 = ORIENTED_EDGE ( 'NONE', *, *, #251, .F. ) ;
#157 = ORIENTED_EDGE ( 'NONE', *, *, #297, .F. ) ;
#158 = CARTESIAN_POINT ( 'NONE',  ( 4.189777606611760026E-14, -1.301042606982605321E-15, 12.00000000000000000 ) ) ;
#159 = CC_DESIGN_SECURITY_CLASSIFICATION ( #296, ( #207 ) ) ;
#160 = FACE_OUTER_BOUND ( 'NONE', #41, .T. ) ;
#161 = CARTESIAN_POINT ( 'NONE',  ( 6.280491014476895838E-14, -2.202899706890974152E-15, 17.98804119216021036 ) ) ;
#162 = CARTESIAN_POINT ( 'NONE',  ( 1.745740669421566678E-14, -6.123233995736766282E-16, 5.000000000000000000 ) ) ;
#163 = CLOSED_SHELL ( 'NONE', ( #79, #240, #92, #31, #106, #55, #37, #264 ) ) ;
#164 = CC_DESIGN_APPROVAL ( #166, ( #296 ) ) ;
#165 = DIRECTION ( 'NONE',  ( -3.491481338843133355E-15, 1.224646799147353207E-16, -1.000000000000000000 ) ) ;
#166 = APPROVAL ( #218, 'UNSPECIFIED' ) ;
#167 = CIRCLE ( 'NONE', #201, 0.5600000000000000533 ) ;
#168 = DATE_AND_TIME ( #51, #255 ) ;
#169 = CALENDAR_DATE ( 2021, 1, 12 ) ;
#170 = AXIS2_PLACEMENT_3D ( 'NONE', #34, #275, #298 ) ;
#171 = DATE_TIME_ROLE ( 'classification_date' ) ;
#172 = DIRECTION ( 'NONE',  ( -3.491481338843133355E-15, 1.224646799147353207E-16, -1.000000000000000000 ) ) ;
#173 = DATE_AND_TIME ( #81, #190 ) ;
#174 = FACE_OUTER_BOUND ( 'NONE', #225, .T. ) ;
#175 = AXIS2_PLACEMENT_3D ( 'NONE', #279, #235, #20 ) ;
#176 = ADVANCED_FACE ( 'NONE', ( #43 ), #119, .F. ) ;
#177 = DIRECTION ( 'NONE',  ( 0.0000000000000000000, 1.000000000000000000, 0.0000000000000000000 ) ) ;
#178 = DIRECTION ( 'NONE',  ( 0.0000000000000000000, 0.0000000000000000000, 1.000000000000000000 ) ) ;
#179 = EDGE_LOOP ( 'NONE', ( #223 ) ) ;
#180 = APPLICATION_CONTEXT ( 'configuration controlled 3d designs of mechanical parts and assemblies' ) ;
#181 = PRODUCT_DEFINITION_SHAPE ( 'NONE', 'NONE',  #123 ) ;
#182 = FACE_OUTER_BOUND ( 'NONE', #200, .T. ) ;
#183 = DIRECTION ( 'NONE',  ( 0.0000000000000000000, 1.000000000000000000, 0.0000000000000000000 ) ) ;
#184 = DIRECTION ( 'NONE',  ( -3.491481338843133355E-15, 1.224646799147353207E-16, -1.000000000000000000 ) ) ;
#185 = FACE_BOUND ( 'NONE', #108, .T. ) ;
#186 = PERSON_AND_ORGANIZATION ( #132, #291 ) ;
#187 = CC_DESIGN_DATE_AND_TIME_ASSIGNMENT ( #168, #257, ( #123 ) ) ;
#188 = FACE_OUTER_BOUND ( 'NONE', #38, .T. ) ;
#189 = AXIS2_PLACEMENT_3D ( 'NONE', #158, #155, #88 ) ;
#190 = LOCAL_TIME ( 11, 40, 15.00000000000000000, #98 ) ;
#191 = CARTESIAN_POINT ( 'NONE',  ( 1.797143765538284567E-14, -6.303531786320004079E-16, 5.147224318643358387 ) ) ;
#192 = ADVANCED_FACE ( 'NONE', ( #277 ), #45, .T. ) ;
#193 = APPLICATION_PROTOCOL_DEFINITION ( 'international standard', 'config_control_design', 1994, #254 ) ;
#194 = LOCAL_TIME ( 11, 40, 15.00000000000000000, #149 ) ;
#195 = VERTEX_POINT ( 'NONE', #263 ) ;
#196 = PERSON_AND_ORGANIZATION ( #132, #291 ) ;
#197 = EDGE_LOOP ( 'NONE', ( #245 ) ) ;
#198 = DIRECTION ( 'NONE',  ( 3.491481338843133355E-15, -1.224646799147353207E-16, 1.000000000000000000 ) ) ;
#199 = EDGE_CURVE ( 'NONE', #227, #227, #46, .T. ) ;
#200 = EDGE_LOOP ( 'NONE', ( #105 ) ) ;
#201 = AXIS2_PLACEMENT_3D ( 'NONE', #25, #258, #252 ) ;
#202 = EDGE_LOOP ( 'NONE', ( #136 ) ) ;
#203 = ORIENTED_EDGE ( 'NONE', *, *, #5, .T. ) ;
#204 = CARTESIAN_POINT ( 'NONE',  ( 0.0000000000000000000, 0.0000000000000000000, 0.0000000000000000000 ) ) ;
#205 = DIRECTION ( 'NONE',  ( 4.275831445896957731E-31, 1.000000000000000000, 1.224646799147353207E-16 ) ) ;
#206 = FACE_OUTER_BOUND ( 'NONE', #228, .T. ) ;
#207 = PRODUCT_DEFINITION_FORMATION_WITH_SPECIFIED_SOURCE ( 'ANY', '', #17, .NOT_KNOWN. ) ;
#208 = DIRECTION ( 'NONE',  ( -3.491481338843133355E-15, 1.224646799147353207E-16, -1.000000000000000000 ) ) ;
#209 = CC_DESIGN_PERSON_AND_ORGANIZATION_ASSIGNMENT ( #8, #268, ( #207 ) ) ;
#210 = CARTESIAN_POINT ( 'NONE',  ( 0.0000000000000000000, 0.0000000000000000000, 0.0000000000000000000 ) ) ;
#211 = APPROVAL_ROLE ( '' ) ;
#212 = CARTESIAN_POINT ( 'NONE',  ( 0.0000000000000000000, 0.0000000000000000000, 0.0000000000000000000 ) ) ;
#213 = CIRCLE ( 'NONE', #170, 0.5053844939755813837 ) ;
#214 = AXIS2_PLACEMENT_3D ( 'NONE', #90, #208, #183 ) ;
#215 =( LENGTH_UNIT ( ) NAMED_UNIT ( * ) SI_UNIT ( .MILLI., .METRE. ) );
#216 = AXIS2_PLACEMENT_3D ( 'NONE', #2, #230, #233 ) ;
#217 = CC_DESIGN_APPROVAL ( #301, ( #207 ) ) ;
#218 = APPROVAL_STATUS ( 'not_yet_approved' ) ;
#219 = EDGE_CURVE ( 'NONE', #143, #143, #84, .T. ) ;
#220 = FACE_OUTER_BOUND ( 'NONE', #56, .T. ) ;
#221 = LOCAL_TIME ( 11, 40, 15.00000000000000000, #33 ) ;
#222 = ORIENTED_EDGE ( 'NONE', *, *, #115, .F. ) ;
#223 = ORIENTED_EDGE ( 'NONE', *, *, #126, .T. ) ;
#224 = FACE_OUTER_BOUND ( 'NONE', #110, .T. ) ;
#225 = EDGE_LOOP ( 'NONE', ( #157 ) ) ;
#226 = AXIS2_PLACEMENT_3D ( 'NONE', #162, #140, #1 ) ;
#227 = VERTEX_POINT ( 'NONE', #53 ) ;
#228 = EDGE_LOOP ( 'NONE', ( #85 ) ) ;
#229 = CC_DESIGN_PERSON_AND_ORGANIZATION_ASSIGNMENT ( #67, #50, ( #123 ) ) ;
#230 = DIRECTION ( 'NONE',  ( -3.491481338843133355E-15, 1.224646799147353207E-16, -1.000000000000000000 ) ) ;
#231 = CARTESIAN_POINT ( 'NONE',  ( 1.745740669421566678E-14, 0.5599999999999993872, 5.000000000000000000 ) ) ;
#232 = DIRECTION ( 'NONE',  ( 3.491481338843133355E-15, -1.224646799147353207E-16, 1.000000000000000000 ) ) ;
#233 = DIRECTION ( 'NONE',  ( 0.0000000000000000000, 1.000000000000000000, 0.0000000000000000000 ) ) ;
#234 = ADVANCED_FACE ( 'NONE', ( #96, #139 ), #99, .T. ) ;
#235 = DIRECTION ( 'NONE',  ( 3.491481338843133355E-15, -1.224646799147353207E-16, 1.000000000000000000 ) ) ;
#236 = FACE_OUTER_BOUND ( 'NONE', #32, .T. ) ;
#237 = TOROIDAL_SURFACE ( 'NONE', #189, 2.475000000000000089, 2.000000000000000444 ) ;
#238 = CC_DESIGN_APPROVAL ( #285, ( #123 ) ) ;
#239 = PERSON_AND_ORGANIZATION_ROLE ( 'classification_officer' ) ;
#240 = ADVANCED_FACE ( 'NONE', ( #188, #112 ), #11, .T. ) ;
#241 = DATE_AND_TIME ( #74, #221 ) ;
#242 = EDGE_LOOP ( 'NONE', ( #9 ) ) ;
#243 = PERSON_AND_ORGANIZATION ( #132, #291 ) ;
#244 = FACE_BOUND ( 'NONE', #109, .T. ) ;
#245 = ORIENTED_EDGE ( 'NONE', *, *, #199, .T. ) ;
#246 = EDGE_LOOP ( 'NONE', ( #271 ) ) ;
#247 = AXIS2_PLACEMENT_3D ( 'NONE', #273, #138, #267 ) ;
#248 = CONICAL_SURFACE ( 'NONE', #120, 0.5599999999999993872, 0.5235987755982925984 ) ;
#249 = DIRECTION ( 'NONE',  ( 3.491481338843133355E-15, -1.224646799147353207E-16, 1.000000000000000000 ) ) ;
#250 = DIRECTION ( 'NONE',  ( -3.491481338843133355E-15, 1.224646799147353207E-16, -1.000000000000000000 ) ) ;
#251 = EDGE_CURVE ( 'NONE', #281, #281, #29, .T. ) ;
#252 = DIRECTION ( 'NONE',  ( 0.0000000000000000000, 1.000000000000000000, 0.0000000000000000000 ) ) ;
#253 = ADVANCED_BREP_SHAPE_REPRESENTATION ( '327011', ( #71, #280, #130 ), #124 ) ;
#254 = APPLICATION_CONTEXT ( 'configuration controlled 3d designs of mechanical parts and assemblies' ) ;
#255 = LOCAL_TIME ( 11, 40, 15.00000000000000000, #73 ) ;
#256 = DIRECTION ( 'NONE',  ( 4.275831445896958607E-31, 1.000000000000000000, 1.224646799147353207E-16 ) ) ;
#257 = DATE_TIME_ROLE ( 'creation_date' ) ;
#258 = DIRECTION ( 'NONE',  ( -3.491481338843133355E-15, 1.224646799147353207E-16, -1.000000000000000000 ) ) ;
#259 = VERTEX_POINT ( 'NONE', #148 ) ;
#260 = EDGE_CURVE ( 'NONE', #276, #276, #262, .T. ) ;
#261 = CLOSED_SHELL ( 'NONE', ( #176, #287, #234, #192 ) ) ;
#262 = CIRCLE ( 'NONE', #226, 0.5600000000000000533 ) ;
#263 = CARTESIAN_POINT ( 'NONE',  ( 4.311035480981395782E-14, 0.5053844939755798293, 12.34729635533384595 ) ) ;
#264 = ADVANCED_FACE ( 'NONE', ( #160 ), #47, .F. ) ;
#265 = CARTESIAN_POINT ( 'NONE',  ( 1.326762908760390423E-13, 1.199999999999998845, 38.00000000000000000 ) ) ;
#266 =( NAMED_UNIT ( * ) PLANE_ANGLE_UNIT ( ) SI_UNIT ( $, .RADIAN. ) );
#267 = DIRECTION ( 'NONE',  ( 0.0000000000000000000, 1.000000000000000000, 0.0000000000000000000 ) ) ;
#268 = PERSON_AND_ORGANIZATION_ROLE ( 'creator' ) ;
#269 = EDGE_LOOP ( 'NONE', ( #16 ) ) ;
#270 = AXIS2_PLACEMENT_3D ( 'NONE', #23, #250, #256 ) ;
#271 = ORIENTED_EDGE ( 'NONE', *, *, #297, .T. ) ;
#272 = CARTESIAN_POINT ( 'NONE',  ( 0.0000000000000000000, 0.0000000000000000000, 0.0000000000000000000 ) ) ;
#273 = CARTESIAN_POINT ( 'NONE',  ( 1.326762908760390423E-13, -4.653657836759941941E-15, 38.00000000000000000 ) ) ;
#274 = UNCERTAINTY_MEASURE_WITH_UNIT (LENGTH_MEASURE( 1.000000000000000082E-05 ), #215, 'distance_accuracy_value', 'NONE');
#275 = DIRECTION ( 'NONE',  ( -3.491481338843133355E-15, 1.224646799147353207E-16, -1.000000000000000000 ) ) ;
#276 = VERTEX_POINT ( 'NONE', #231 ) ;
#277 = FACE_OUTER_BOUND ( 'NONE', #269, .T. ) ;
#278 = CARTESIAN_POINT ( 'NONE',  ( 6.280491014476895838E-14, -2.202899706890974152E-15, 17.98804119216021036 ) ) ;
#279 = CARTESIAN_POINT ( 'NONE',  ( 1.745740669421566678E-14, 4.199327391453192954E-33, 5.000000000000000000 ) ) ;
#280 = MANIFOLD_SOLID_BREP ( 'Corps-Déplacer/Copier1[2]', #261 ) ;
#281 = VERTEX_POINT ( 'NONE', #145 ) ;
#282 = CARTESIAN_POINT ( 'NONE',  ( 1.797143765538284567E-14, -6.303531786320004079E-16, 5.147224318643358387 ) ) ;
#283 = DATE_AND_TIME ( #169, #194 ) ;
#284 = CARTESIAN_POINT ( 'NONE',  ( 8.728703347107831416E-16, -3.061616997868382402E-17, 0.2499999999999999445 ) ) ;
#285 = APPROVAL ( #28, 'UNSPECIFIED' ) ;
#286 = AXIS2_PLACEMENT_3D ( 'NONE', #161, #184, #116 ) ;
#287 = ADVANCED_FACE ( 'NONE', ( #185, #206 ), #248, .T. ) ;
#288 = PERSON_AND_ORGANIZATION ( #132, #291 ) ;
#289 = VERTEX_POINT ( 'NONE', #265 ) ;
#290 = APPROVAL_DATE_TIME ( #241, #166 ) ;
#291 = ORGANIZATION ( 'UNSPECIFIED', 'UNSPECIFIED', '' ) ;
#292 = SECURITY_CLASSIFICATION_LEVEL ( 'unclassified' ) ;
#293 = DIRECTION ( 'NONE',  ( -4.275831445896958607E-31, -1.000000000000000000, -1.224646799147353207E-16 ) ) ;
#294 = VERTEX_POINT ( 'NONE', #83 ) ;
#295 = ORIENTED_EDGE ( 'NONE', *, *, #100, .F. ) ;
#296 = SECURITY_CLASSIFICATION ( '', '', #292 ) ;
#297 = EDGE_CURVE ( 'NONE', #259, #259, #60, .T. ) ;
#298 = DIRECTION ( 'NONE',  ( 0.0000000000000000000, 1.000000000000000000, 0.0000000000000000000 ) ) ;
#299 = DIRECTION ( 'NONE',  ( -3.491481338843133355E-15, 1.224646799147353207E-16, -1.000000000000000000 ) ) ;
#300 = DIRECTION ( 'NONE',  ( 0.0000000000000000000, 1.000000000000000000, 0.0000000000000000000 ) ) ;
#301 = APPROVAL ( #150, 'UNSPECIFIED' ) ;
#302 = AXIS2_PLACEMENT_3D ( 'NONE', #153, #198, #293 ) ;
#303 = CARTESIAN_POINT ( 'NONE',  ( 8.728703347107831416E-16, -3.061616997868382402E-17, 0.2499999999999999445 ) ) ;
ENDSEC;
END-ISO-10303-21;
