ISO-10303-21;
HEADER;
FILE_DESCRIPTION (( 'STEP AP203' ),
    '1' );
FILE_NAME ('327010.step',
    '2021-12-01T10:40:14',
    ( '' ),
    ( '' ),
    'SwSTEP 2.0',
    'SolidWorks 2019',
    '' );
FILE_SCHEMA (( 'CONFIG_CONTROL_DESIGN' ));
ENDSEC;

DATA;
#1 = CARTESIAN_POINT ( 'NONE',  ( 4.311035480981395782E-14, 0.5053844939755798293, 12.34729635533384595 ) ) ;
#2 = APPLICATION_PROTOCOL_DEFINITION ( 'international standard', 'config_control_design', 1994, #278 ) ;
#3 = CARTESIAN_POINT ( 'NONE',  ( 0.0000000000000000000, 0.0000000000000000000, 0.0000000000000000000 ) ) ;
#4 = ADVANCED_FACE ( 'NONE', ( #208, #11 ), #295, .F. ) ;
#5 = DIRECTION ( 'NONE',  ( 4.275831445896958607E-31, 1.000000000000000000, 1.224646799147353207E-16 ) ) ;
#6 = CARTESIAN_POINT ( 'NONE',  ( 1.326762908760390423E-13, -4.653657836759941941E-15, 38.00000000000000000 ) ) ;
#7 = PERSON_AND_ORGANIZATION ( #255, #188 ) ;
#8 = AXIS2_PLACEMENT_3D ( 'NONE', #51, #283, #72 ) ;
#9 = DIRECTION ( 'NONE',  ( 4.275831445896958607E-31, 1.000000000000000000, 1.224646799147353207E-16 ) ) ;
#10 = COORDINATED_UNIVERSAL_TIME_OFFSET ( 1, 0, .AHEAD. ) ;
#11 = FACE_OUTER_BOUND ( 'NONE', #83, .T. ) ;
#12 = ORIENTED_EDGE ( 'NONE', *, *, #134, .F. ) ;
#13 = CALENDAR_DATE ( 2021, 1, 12 ) ;
#14 = AXIS2_PLACEMENT_3D ( 'NONE', #3, #97, #171 ) ;
#15 = ADVANCED_FACE ( 'NONE', ( #31 ), #269, .F. ) ;
#16 = EDGE_LOOP ( 'NONE', ( #126 ) ) ;
#17 = AXIS2_PLACEMENT_3D ( 'NONE', #280, #117, #99 ) ;
#18 = ORIENTED_EDGE ( 'NONE', *, *, #34, .F. ) ;
#19 = FACE_OUTER_BOUND ( 'NONE', #109, .T. ) ;
#20 = CC_DESIGN_PERSON_AND_ORGANIZATION_ASSIGNMENT ( #55, #265, ( #74 ) ) ;
#21 = CC_DESIGN_SECURITY_CLASSIFICATION ( #74, ( #82 ) ) ;
#22 = AXIS2_PLACEMENT_3D ( 'NONE', #272, #111, #232 ) ;
#23 = DIRECTION ( 'NONE',  ( 0.0000000000000000000, -1.000000000000000000, 0.0000000000000000000 ) ) ;
#24 = AXIS2_PLACEMENT_3D ( 'NONE', #136, #132, #110 ) ;
#25 = AXIS2_PLACEMENT_3D ( 'NONE', #154, #246, #9 ) ;
#26 = FACE_OUTER_BOUND ( 'NONE', #33, .T. ) ;
#27 = APPROVAL ( #59, 'UNSPECIFIED' ) ;
#28 = APPROVAL_DATE_TIME ( #203, #27 ) ;
#29 = ORIENTED_EDGE ( 'NONE', *, *, #43, .T. ) ;
#30 = LOCAL_TIME ( 11, 40, 14.00000000000000000, #76 ) ;
#31 = FACE_OUTER_BOUND ( 'NONE', #249, .T. ) ;
#32 = AXIS2_PLACEMENT_3D ( 'NONE', #137, #88, #63 ) ;
#33 = EDGE_LOOP ( 'NONE', ( #35 ) ) ;
#34 = EDGE_CURVE ( 'NONE', #93, #93, #39, .T. ) ;
#35 = ORIENTED_EDGE ( 'NONE', *, *, #264, .T. ) ;
#36 = AXIS2_PLACEMENT_3D ( 'NONE', #115, #119, #216 ) ;
#37 = ADVANCED_FACE ( 'NONE', ( #81 ), #178, .T. ) ;
#38 = CYLINDRICAL_SURFACE ( 'NONE', #32, 0.5549999999999997158 ) ;
#39 = CIRCLE ( 'NONE', #300, 0.5550000000000000488 ) ;
#40 = VERTEX_POINT ( 'NONE', #1 ) ;
#41 = ADVANCED_FACE ( 'NONE', ( #153, #243 ), #38, .T. ) ;
#42 = FACE_OUTER_BOUND ( 'NONE', #16, .T. ) ;
#43 = EDGE_CURVE ( 'NONE', #40, #40, #102, .T. ) ;
#44 = DATE_AND_TIME ( #96, #183 ) ;
#45 = DIRECTION ( 'NONE',  ( -3.491481338843133355E-15, 1.224646799147353207E-16, -1.000000000000000000 ) ) ;
#46 = CARTESIAN_POINT ( 'NONE',  ( 1.745740669421566678E-14, 0.5549999999999993827, 5.000000000000000000 ) ) ;
#47 = APPROVAL_DATE_TIME ( #116, #66 ) ;
#48 = FACE_BOUND ( 'NONE', #268, .T. ) ;
#49 = LOCAL_TIME ( 11, 40, 14.00000000000000000, #170 ) ;
#50 = CALENDAR_DATE ( 2021, 1, 12 ) ;
#51 = CARTESIAN_POINT ( 'NONE',  ( 6.280491014476895838E-14, -2.202899706890974152E-15, 17.98804119216021036 ) ) ;
#52 = EDGE_LOOP ( 'NONE', ( #159 ) ) ;
#53 = CONICAL_SURFACE ( 'NONE', #252, 1.499999999999997558, 0.1745329251994261477 ) ;
#54 = ORIENTED_EDGE ( 'NONE', *, *, #210, .T. ) ;
#55 = PERSON_AND_ORGANIZATION ( #255, #188 ) ;
#56 = EDGE_LOOP ( 'NONE', ( #108 ) ) ;
#57 = CIRCLE ( 'NONE', #205, 0.5550000000000000488 ) ;
#58 = EDGE_LOOP ( 'NONE', ( #223 ) ) ;
#59 = APPROVAL_STATUS ( 'not_yet_approved' ) ;
#60 = EDGE_LOOP ( 'NONE', ( #176 ) ) ;
#61 = ORIENTED_EDGE ( 'NONE', *, *, #264, .F. ) ;
#62 = AXIS2_PLACEMENT_3D ( 'NONE', #262, #151, #156 ) ;
#63 = DIRECTION ( 'NONE',  ( 4.275831445896958607E-31, 1.000000000000000000, 1.224646799147353207E-16 ) ) ;
#64 =( GEOMETRIC_REPRESENTATION_CONTEXT ( 3 ) GLOBAL_UNCERTAINTY_ASSIGNED_CONTEXT ( ( #149 ) ) GLOBAL_UNIT_ASSIGNED_CONTEXT ( ( #92, #141, #196 ) ) REPRESENTATION_CONTEXT ( 'NONE', 'WORKASPACE' ) );
#65 = APPROVAL_STATUS ( 'not_yet_approved' ) ;
#66 = APPROVAL ( #65, 'UNSPECIFIED' ) ;
#67 = CIRCLE ( 'NONE', #164, 0.4106624327025951149 ) ;
#68 = CARTESIAN_POINT ( 'NONE',  ( 8.728703347107833388E-16, 0.5549999999999993827, 0.2500000000000000000 ) ) ;
#69 = PERSON_AND_ORGANIZATION ( #255, #188 ) ;
#70 = FACE_OUTER_BOUND ( 'NONE', #227, .T. ) ;
#71 = AXIS2_PLACEMENT_3D ( 'NONE', #120, #175, #169 ) ;
#72 = DIRECTION ( 'NONE',  ( 0.0000000000000000000, 1.000000000000000000, 0.0000000000000000000 ) ) ;
#73 = DIRECTION ( 'NONE',  ( 4.275831445896958607E-31, 1.000000000000000000, 1.224646799147353207E-16 ) ) ;
#74 = SECURITY_CLASSIFICATION ( '', '', #127 ) ;
#75 = ADVANCED_FACE ( 'NONE', ( #19, #298 ), #209, .T. ) ;
#76 = COORDINATED_UNIVERSAL_TIME_OFFSET ( 1, 0, .AHEAD. ) ;
#77 = PLANE ( 'NONE',  #62 ) ;
#78 = CIRCLE ( 'NONE', #71, 1.500000000000003331 ) ;
#79 = FACE_BOUND ( 'NONE', #181, .T. ) ;
#80 = EDGE_LOOP ( 'NONE', ( #106 ) ) ;
#81 = FACE_OUTER_BOUND ( 'NONE', #130, .T. ) ;
#82 = PRODUCT_DEFINITION_FORMATION_WITH_SPECIFIED_SOURCE ( 'ANY', '', #105, .NOT_KNOWN. ) ;
#83 = EDGE_LOOP ( 'NONE', ( #29 ) ) ;
#84 = ORIENTED_EDGE ( 'NONE', *, *, #220, .F. ) ;
#85 = CC_DESIGN_DATE_AND_TIME_ASSIGNMENT ( #44, #143, ( #165 ) ) ;
#86 = EDGE_LOOP ( 'NONE', ( #131 ) ) ;
#87 = CONICAL_SURFACE ( 'NONE', #302, 0.4749999999999993117, 0.5235987755982924874 ) ;
#88 = DIRECTION ( 'NONE',  ( -3.491481338843133355E-15, 1.224646799147353207E-16, -1.000000000000000000 ) ) ;
#89 = VERTEX_POINT ( 'NONE', #95 ) ;
#90 = LOCAL_TIME ( 11, 40, 14.00000000000000000, #10 ) ;
#91 = VERTEX_POINT ( 'NONE', #211 ) ;
#92 =( LENGTH_UNIT ( ) NAMED_UNIT ( * ) SI_UNIT ( .MILLI., .METRE. ) );
#93 = VERTEX_POINT ( 'NONE', #46 ) ;
#94 = PERSON_AND_ORGANIZATION ( #255, #188 ) ;
#95 = CARTESIAN_POINT ( 'NONE',  ( 4.189777606611760026E-14, 0.4749999999999984235, 12.00000000000000000 ) ) ;
#96 = CALENDAR_DATE ( 2021, 1, 12 ) ;
#97 = DIRECTION ( 'NONE',  ( -3.491481338843133355E-15, 1.224646799147353207E-16, -1.000000000000000000 ) ) ;
#98 = CONICAL_SURFACE ( 'NONE', #217, 1.200000000000003286, 0.7853981633974453924 ) ;
#99 = DIRECTION ( 'NONE',  ( 0.0000000000000000000, 1.000000000000000000, 0.0000000000000000000 ) ) ;
#100 = DIRECTION ( 'NONE',  ( 3.470144043940969304E-31, 1.000000000000000000, 9.767587139509059660E-17 ) ) ;
#101 = DIRECTION ( 'NONE',  ( -3.470144043940969304E-31, -1.000000000000000000, -9.767587139509059660E-17 ) ) ;
#102 = CIRCLE ( 'NONE', #22, 0.5053844939755813837 ) ;
#103 = APPROVAL_ROLE ( '' ) ;
#104 = CARTESIAN_POINT ( 'NONE',  ( 1.745740669421566678E-14, -6.123233995736766282E-16, 5.000000000000000000 ) ) ;
#105 = PRODUCT ( '327010', '327010', '', ( #197 ) ) ;
#106 = ORIENTED_EDGE ( 'NONE', *, *, #299, .F. ) ;
#107 = AXIS2_PLACEMENT_3D ( 'NONE', #260, #148, #101 ) ;
#108 = ORIENTED_EDGE ( 'NONE', *, *, #138, .F. ) ;
#109 = EDGE_LOOP ( 'NONE', ( #12 ) ) ;
#110 = DIRECTION ( 'NONE',  ( 0.0000000000000000000, 1.000000000000000000, 0.0000000000000000000 ) ) ;
#111 = DIRECTION ( 'NONE',  ( -3.491481338843133355E-15, 1.224646799147353207E-16, -1.000000000000000000 ) ) ;
#112 = CC_DESIGN_APPROVAL ( #66, ( #165 ) ) ;
#113 = VERTEX_POINT ( 'NONE', #303 ) ;
#114 = CIRCLE ( 'NONE', #172, 0.5549999999999993827 ) ;
#115 = CARTESIAN_POINT ( 'NONE',  ( 0.0000000000000000000, 0.0000000000000000000, 0.0000000000000000000 ) ) ;
#116 = DATE_AND_TIME ( #50, #49 ) ;
#117 = DIRECTION ( 'NONE',  ( -3.491481338843133355E-15, 1.224646799147353207E-16, -1.000000000000000000 ) ) ;
#118 = FACE_OUTER_BOUND ( 'NONE', #206, .T. ) ;
#119 = DIRECTION ( 'NONE',  ( 0.0000000000000000000, 0.0000000000000000000, 1.000000000000000000 ) ) ;
#120 = CARTESIAN_POINT ( 'NONE',  ( 1.316288464743861212E-13, -4.616918432785521081E-15, 37.69999999999999574 ) ) ;
#121 = CLOSED_SHELL ( 'NONE', ( #15, #190, #75, #4, #152, #245, #174, #229 ) ) ;
#122 = CALENDAR_DATE ( 2021, 1, 12 ) ;
#123 = DIRECTION ( 'NONE',  ( 0.0000000000000000000, 1.000000000000000000, 0.0000000000000000000 ) ) ;
#124 = PERSON_AND_ORGANIZATION_ROLE ( 'design_supplier' ) ;
#125 = DIRECTION ( 'NONE',  ( 0.0000000000000000000, 1.000000000000000000, 0.0000000000000000000 ) ) ;
#126 = ORIENTED_EDGE ( 'NONE', *, *, #284, .F. ) ;
#127 = SECURITY_CLASSIFICATION_LEVEL ( 'unclassified' ) ;
#128 = CARTESIAN_POINT ( 'NONE',  ( 8.728703347107831416E-16, -3.061616997868382402E-17, 0.2499999999999999445 ) ) ;
#129 = AXIS2_PLACEMENT_3D ( 'NONE', #297, #251, #293 ) ;
#130 = EDGE_LOOP ( 'NONE', ( #296 ) ) ;
#131 = ORIENTED_EDGE ( 'NONE', *, *, #289, .T. ) ;
#132 = DIRECTION ( 'NONE',  ( -3.491481338843133355E-15, 1.224646799147353207E-16, -1.000000000000000000 ) ) ;
#133 = EDGE_LOOP ( 'NONE', ( #84 ) ) ;
#134 = EDGE_CURVE ( 'NONE', #234, #234, #195, .T. ) ;
#135 = DIRECTION ( 'NONE',  ( -3.491481338843133355E-15, 1.224646799147353207E-16, -1.000000000000000000 ) ) ;
#136 = CARTESIAN_POINT ( 'NONE',  ( 1.326762908760390423E-13, -4.653657836759941941E-15, 38.00000000000000000 ) ) ;
#137 = CARTESIAN_POINT ( 'NONE',  ( 0.0000000000000000000, 0.0000000000000000000, 0.0000000000000000000 ) ) ;
#138 = EDGE_CURVE ( 'NONE', #113, #113, #78, .T. ) ;
#139 = CC_DESIGN_PERSON_AND_ORGANIZATION_ASSIGNMENT ( #147, #213, ( #165 ) ) ;
#140 = AXIS2_PLACEMENT_3D ( 'NONE', #259, #45, #73 ) ;
#141 =( NAMED_UNIT ( * ) PLANE_ANGLE_UNIT ( ) SI_UNIT ( $, .RADIAN. ) );
#142 = PLANE ( 'NONE',  #140 ) ;
#143 = DATE_TIME_ROLE ( 'creation_date' ) ;
#144 = DIRECTION ( 'NONE',  ( 0.0000000000000000000, 1.000000000000000000, 0.0000000000000000000 ) ) ;
#145 = DIRECTION ( 'NONE',  ( -3.491481338843133355E-15, 1.224646799147353207E-16, -1.000000000000000000 ) ) ;
#146 = CARTESIAN_POINT ( 'NONE',  ( 1.745740669421566678E-14, -6.123233995736766282E-16, 5.000000000000000000 ) ) ;
#147 = PERSON_AND_ORGANIZATION ( #255, #188 ) ;
#148 = DIRECTION ( 'NONE',  ( 3.491481338843133355E-15, -1.224646799147353207E-16, 1.000000000000000000 ) ) ;
#149 = UNCERTAINTY_MEASURE_WITH_UNIT (LENGTH_MEASURE( 1.000000000000000082E-05 ), #92, 'distance_accuracy_value', 'NONE');
#150 = COORDINATED_UNIVERSAL_TIME_OFFSET ( 1, 0, .AHEAD. ) ;
#151 = DIRECTION ( 'NONE',  ( 3.491481338843133355E-15, -1.224646799147353207E-16, 1.000000000000000000 ) ) ;
#152 = ADVANCED_FACE ( 'NONE', ( #48, #26 ), #53, .T. ) ;
#153 = FACE_OUTER_BOUND ( 'NONE', #80, .T. ) ;
#154 = CARTESIAN_POINT ( 'NONE',  ( 4.189777606611760026E-14, -1.301042606982605321E-15, 12.00000000000000000 ) ) ;
#155 = CALENDAR_DATE ( 2021, 1, 12 ) ;
#156 = DIRECTION ( 'NONE',  ( -4.275831445896958607E-31, -1.000000000000000000, -1.224646799147353207E-16 ) ) ;
#157 = ORIENTED_EDGE ( 'NONE', *, *, #34, .T. ) ;
#158 = APPROVAL_STATUS ( 'not_yet_approved' ) ;
#159 = ORIENTED_EDGE ( 'NONE', *, *, #299, .T. ) ;
#160 = PERSON_AND_ORGANIZATION ( #255, #188 ) ;
#161 = ORIENTED_EDGE ( 'NONE', *, *, #220, .T. ) ;
#162 = CARTESIAN_POINT ( 'NONE',  ( 0.0000000000000000000, 0.0000000000000000000, 0.0000000000000000000 ) ) ;
#163 = APPROVAL ( #158, 'UNSPECIFIED' ) ;
#164 = AXIS2_PLACEMENT_3D ( 'NONE', #185, #145, #5 ) ;
#165 = PRODUCT_DEFINITION ( 'UNKNOWN', '', #82, #273 ) ;
#166 = CARTESIAN_POINT ( 'NONE',  ( -1.892735826383161137E-31, 0.4106624327025951149, -5.421010862427522170E-17 ) ) ;
#167 = CARTESIAN_POINT ( 'NONE',  ( 1.794120054002007062E-14, -6.292926033932755609E-16, 5.138564064605513515 ) ) ;
#168 = PERSON_AND_ORGANIZATION_ROLE ( 'design_owner' ) ;
#169 = DIRECTION ( 'NONE',  ( 0.0000000000000000000, 1.000000000000000000, 0.0000000000000000000 ) ) ;
#170 = COORDINATED_UNIVERSAL_TIME_OFFSET ( 1, 0, .AHEAD. ) ;
#171 = DIRECTION ( 'NONE',  ( 4.275831445896958607E-31, 1.000000000000000000, 1.224646799147353207E-16 ) ) ;
#172 = AXIS2_PLACEMENT_3D ( 'NONE', #128, #186, #100 ) ;
#173 = DATE_AND_TIME ( #122, #30 ) ;
#174 = ADVANCED_FACE ( 'NONE', ( #285, #79 ), #98, .T. ) ;
#175 = DIRECTION ( 'NONE',  ( -3.491481338843133355E-15, 1.224646799147353207E-16, -1.000000000000000000 ) ) ;
#176 = ORIENTED_EDGE ( 'NONE', *, *, #289, .F. ) ;
#177 = CIRCLE ( 'NONE', #8, 1.499999999999997558 ) ;
#178 = PLANE ( 'NONE',  #281 ) ;
#179 = ORIENTED_EDGE ( 'NONE', *, *, #138, .T. ) ;
#180 = DATE_TIME_ROLE ( 'classification_date' ) ;
#181 = EDGE_LOOP ( 'NONE', ( #266 ) ) ;
#182 = DIRECTION ( 'NONE',  ( -4.275831445896958607E-31, -1.000000000000000000, -1.224646799147353207E-16 ) ) ;
#183 = LOCAL_TIME ( 11, 40, 14.00000000000000000, #258 ) ;
#184 = CC_DESIGN_PERSON_AND_ORGANIZATION_ASSIGNMENT ( #160, #286, ( #82 ) ) ;
#185 = CARTESIAN_POINT ( 'NONE',  ( -3.648659169781460842E-31, 1.279777360898923671E-32, -1.045017519982050625E-16 ) ) ;
#186 = DIRECTION ( 'NONE',  ( -3.491481338843133355E-15, 1.224646799147353207E-16, -1.000000000000000000 ) ) ;
#187 = VERTEX_POINT ( 'NONE', #276 ) ;
#188 = ORGANIZATION ( 'UNSPECIFIED', 'UNSPECIFIED', '' ) ;
#189 = VERTEX_POINT ( 'NONE', #166 ) ;
#190 = ADVANCED_FACE ( 'NONE', ( #70, #193 ), #87, .T. ) ;
#191 = VERTEX_POINT ( 'NONE', #279 ) ;
#192 = CIRCLE ( 'NONE', #24, 1.200000000000003286 ) ;
#193 = FACE_BOUND ( 'NONE', #58, .T. ) ;
#194 = CARTESIAN_POINT ( 'NONE',  ( 6.280491014476895838E-14, -2.202899706890974152E-15, 17.98804119216021036 ) ) ;
#195 = CIRCLE ( 'NONE', #17, 0.4749999999999993117 ) ;
#196 =( NAMED_UNIT ( * ) SI_UNIT ( $, .STERADIAN. ) SOLID_ANGLE_UNIT ( ) );
#197 = MECHANICAL_CONTEXT ( 'NONE', #221, 'mechanical' ) ;
#198 = DIRECTION ( 'NONE',  ( -3.491481338843133355E-15, 1.224646799147353207E-16, -1.000000000000000000 ) ) ;
#199 = FACE_OUTER_BOUND ( 'NONE', #86, .T. ) ;
#200 = AXIS2_PLACEMENT_3D ( 'NONE', #288, #242, #144 ) ;
#201 = DIRECTION ( 'NONE',  ( 4.275831445896957731E-31, 1.000000000000000000, 1.224646799147353207E-16 ) ) ;
#202 = DIRECTION ( 'NONE',  ( 0.0000000000000000000, 1.000000000000000000, 0.0000000000000000000 ) ) ;
#203 = DATE_AND_TIME ( #13, #90 ) ;
#204 = PRODUCT_RELATED_PRODUCT_CATEGORY ( 'detail', '', ( #105 ) ) ;
#205 = AXIS2_PLACEMENT_3D ( 'NONE', #146, #214, #123 ) ;
#206 = EDGE_LOOP ( 'NONE', ( #179 ) ) ;
#207 = EDGE_LOOP ( 'NONE', ( #61 ) ) ;
#208 = FACE_OUTER_BOUND ( 'NONE', #133, .T. ) ;
#209 = CYLINDRICAL_SURFACE ( 'NONE', #239, 0.4749999999999996447 ) ;
#210 = EDGE_CURVE ( 'NONE', #91, #91, #57, .T. ) ;
#211 = CARTESIAN_POINT ( 'NONE',  ( 1.745740669421566678E-14, 0.5549999999999993827, 5.000000000000000000 ) ) ;
#212 = CC_DESIGN_DATE_AND_TIME_ASSIGNMENT ( #173, #180, ( #74 ) ) ;
#213 = PERSON_AND_ORGANIZATION_ROLE ( 'creator' ) ;
#214 = DIRECTION ( 'NONE',  ( -3.491481338843133355E-15, 1.224646799147353207E-16, -1.000000000000000000 ) ) ;
#215 = CYLINDRICAL_SURFACE ( 'NONE', #14, 1.500000000000000444 ) ;
#216 = DIRECTION ( 'NONE',  ( 1.000000000000000000, 0.0000000000000000000, 0.0000000000000000000 ) ) ;
#217 = AXIS2_PLACEMENT_3D ( 'NONE', #6, #198, #125 ) ;
#218 = PERSON_AND_ORGANIZATION ( #255, #188 ) ;
#219 = FACE_OUTER_BOUND ( 'NONE', #52, .T. ) ;
#220 = EDGE_CURVE ( 'NONE', #89, #89, #236, .T. ) ;
#221 = APPLICATION_CONTEXT ( 'configuration controlled 3d designs of mechanical parts and assemblies' ) ;
#222 = DIRECTION ( 'NONE',  ( 0.0000000000000000000, 1.000000000000000000, 0.0000000000000000000 ) ) ;
#223 = ORIENTED_EDGE ( 'NONE', *, *, #134, .T. ) ;
#224 = CC_DESIGN_PERSON_AND_ORGANIZATION_ASSIGNMENT ( #218, #124, ( #82 ) ) ;
#225 = EDGE_LOOP ( 'NONE', ( #54 ) ) ;
#226 = APPROVAL_PERSON_ORGANIZATION ( #7, #27, #294 ) ;
#227 = EDGE_LOOP ( 'NONE', ( #18 ) ) ;
#228 = MANIFOLD_SOLID_BREP ( 'Corps-Déplacer/Copier1[1]', #121 ) ;
#229 = ADVANCED_FACE ( 'NONE', ( #42 ), #142, .F. ) ;
#230 = MANIFOLD_SOLID_BREP ( 'Corps-Déplacer/Copier1[2]', #254 ) ;
#231 = DIRECTION ( 'NONE',  ( 3.491481338843133355E-15, -1.224646799147353207E-16, 1.000000000000000000 ) ) ;
#232 = DIRECTION ( 'NONE',  ( 0.0000000000000000000, 1.000000000000000000, 0.0000000000000000000 ) ) ;
#233 = APPROVAL_PERSON_ORGANIZATION ( #69, #66, #256 ) ;
#234 = VERTEX_POINT ( 'NONE', #301 ) ;
#235 = ADVANCED_BREP_SHAPE_REPRESENTATION ( '327010', ( #228, #230, #36 ), #64 ) ;
#236 = CIRCLE ( 'NONE', #200, 0.4749999999999998668 ) ;
#237 = CC_DESIGN_PERSON_AND_ORGANIZATION_ASSIGNMENT ( #94, #168, ( #105 ) ) ;
#238 = DIRECTION ( 'NONE',  ( 3.491481338843133355E-15, -1.224646799147353207E-16, 1.000000000000000000 ) ) ;
#239 = AXIS2_PLACEMENT_3D ( 'NONE', #162, #253, #201 ) ;
#240 = FACE_OUTER_BOUND ( 'NONE', #207, .T. ) ;
#241 = FACE_BOUND ( 'NONE', #60, .T. ) ;
#242 = DIRECTION ( 'NONE',  ( -3.491481338843133355E-15, 1.224646799147353207E-16, -1.000000000000000000 ) ) ;
#243 = FACE_OUTER_BOUND ( 'NONE', #225, .T. ) ;
#244 = CC_DESIGN_APPROVAL ( #27, ( #82 ) ) ;
#245 = ADVANCED_FACE ( 'NONE', ( #240, #118 ), #215, .T. ) ;
#246 = DIRECTION ( 'NONE',  ( -3.491481338843133355E-15, 1.224646799147353207E-16, -1.000000000000000000 ) ) ;
#247 = CARTESIAN_POINT ( 'NONE',  ( 1.745740669421566678E-14, 4.161833396886646925E-33, 5.000000000000000000 ) ) ;
#248 = PRODUCT_DEFINITION_SHAPE ( 'NONE', 'NONE',  #165 ) ;
#249 = EDGE_LOOP ( 'NONE', ( #157 ) ) ;
#250 = APPROVAL_PERSON_ORGANIZATION ( #267, #163, #103 ) ;
#251 = DIRECTION ( 'NONE',  ( 3.491481338843133355E-15, -1.224646799147353207E-16, 1.000000000000000000 ) ) ;
#252 = AXIS2_PLACEMENT_3D ( 'NONE', #194, #238, #23 ) ;
#253 = DIRECTION ( 'NONE',  ( -3.491481338843133355E-15, 1.224646799147353207E-16, -1.000000000000000000 ) ) ;
#254 = CLOSED_SHELL ( 'NONE', ( #274, #270, #41, #37 ) ) ;
#255 = PERSON ( 'UNSPECIFIED', 'UNSPECIFIED', 'UNSPECIFIED', ('UNSPECIFIED'), ('UNSPECIFIED'), ('UNSPECIFIED') ) ;
#256 = APPROVAL_ROLE ( '' ) ;
#257 = DIRECTION ( 'NONE',  ( -3.491481338843133355E-15, 1.224646799147353207E-16, -1.000000000000000000 ) ) ;
#258 = COORDINATED_UNIVERSAL_TIME_OFFSET ( 1, 0, .AHEAD. ) ;
#259 = CARTESIAN_POINT ( 'NONE',  ( 1.326762908760390423E-13, 8.998558695971103225E-33, 38.00000000000000000 ) ) ;
#260 = CARTESIAN_POINT ( 'NONE',  ( 8.728703347107831416E-16, -3.061616997868382402E-17, 0.2499999999999999445 ) ) ;
#261 = SHAPE_DEFINITION_REPRESENTATION ( #248, #235 ) ;
#262 = CARTESIAN_POINT ( 'NONE',  ( -1.824329584890730421E-31, 6.398886804494618355E-33, -5.225087599910253126E-17 ) ) ;
#263 = APPROVAL_DATE_TIME ( #292, #163 ) ;
#264 = EDGE_CURVE ( 'NONE', #191, #191, #177, .T. ) ;
#265 = PERSON_AND_ORGANIZATION_ROLE ( 'classification_officer' ) ;
#266 = ORIENTED_EDGE ( 'NONE', *, *, #284, .T. ) ;
#267 = PERSON_AND_ORGANIZATION ( #255, #188 ) ;
#268 = EDGE_LOOP ( 'NONE', ( #291 ) ) ;
#269 = PLANE ( 'NONE',  #129 ) ;
#270 = ADVANCED_FACE ( 'NONE', ( #241, #219 ), #275, .T. ) ;
#271 = CC_DESIGN_APPROVAL ( #163, ( #74 ) ) ;
#272 = CARTESIAN_POINT ( 'NONE',  ( 4.311035480981395782E-14, -1.512107695968337463E-15, 12.34729635533384595 ) ) ;
#273 = DESIGN_CONTEXT ( 'detailed design', #278, 'design' ) ;
#274 = ADVANCED_FACE ( 'NONE', ( #199 ), #77, .F. ) ;
#275 = CONICAL_SURFACE ( 'NONE', #107, 0.5549999999999993827, 0.5235987755982922653 ) ;
#276 = CARTESIAN_POINT ( 'NONE',  ( 1.326762908760390423E-13, 1.199999999999998845, 38.00000000000000000 ) ) ;
#277 = VERTEX_POINT ( 'NONE', #68 ) ;
#278 = APPLICATION_CONTEXT ( 'configuration controlled 3d designs of mechanical parts and assemblies' ) ;
#279 = CARTESIAN_POINT ( 'NONE',  ( 6.280491014476895838E-14, 1.499999999999995559, 17.98804119216021036 ) ) ;
#280 = CARTESIAN_POINT ( 'NONE',  ( 1.794120054002007062E-14, -6.292926033932755609E-16, 5.138564064605513515 ) ) ;
#281 = AXIS2_PLACEMENT_3D ( 'NONE', #247, #231, #182 ) ;
#282 = APPLICATION_PROTOCOL_DEFINITION ( 'international standard', 'config_control_design', 1994, #221 ) ;
#283 = DIRECTION ( 'NONE',  ( -3.491481338843133355E-15, 1.224646799147353207E-16, -1.000000000000000000 ) ) ;
#284 = EDGE_CURVE ( 'NONE', #187, #187, #192, .T. ) ;
#285 = FACE_OUTER_BOUND ( 'NONE', #56, .T. ) ;
#286 = PERSON_AND_ORGANIZATION_ROLE ( 'creator' ) ;
#287 = LOCAL_TIME ( 11, 40, 14.00000000000000000, #150 ) ;
#288 = CARTESIAN_POINT ( 'NONE',  ( 4.189777606611760026E-14, -1.469576158976823947E-15, 12.00000000000000000 ) ) ;
#289 = EDGE_CURVE ( 'NONE', #189, #189, #67, .T. ) ;
#290 = EDGE_LOOP ( 'NONE', ( #161 ) ) ;
#291 = ORIENTED_EDGE ( 'NONE', *, *, #43, .F. ) ;
#292 = DATE_AND_TIME ( #155, #287 ) ;
#293 = DIRECTION ( 'NONE',  ( -4.275831445896958607E-31, -1.000000000000000000, -1.224646799147353207E-16 ) ) ;
#294 = APPROVAL_ROLE ( '' ) ;
#295 = TOROIDAL_SURFACE ( 'NONE', #25, 2.475000000000000089, 2.000000000000000444 ) ;
#296 = ORIENTED_EDGE ( 'NONE', *, *, #210, .F. ) ;
#297 = CARTESIAN_POINT ( 'NONE',  ( 1.745740669421566678E-14, 4.161833396886646925E-33, 5.000000000000000000 ) ) ;
#298 = FACE_OUTER_BOUND ( 'NONE', #290, .T. ) ;
#299 = EDGE_CURVE ( 'NONE', #277, #277, #114, .T. ) ;
#300 = AXIS2_PLACEMENT_3D ( 'NONE', #104, #135, #202 ) ;
#301 = CARTESIAN_POINT ( 'NONE',  ( 1.794120054002007062E-14, 0.4749999999999986455, 5.138564064605513515 ) ) ;
#302 = AXIS2_PLACEMENT_3D ( 'NONE', #167, #257, #222 ) ;
#303 = CARTESIAN_POINT ( 'NONE',  ( 1.316288464743861212E-13, 1.499999999999998668, 37.69999999999999574 ) ) ;
ENDSEC;
END-ISO-10303-21;
