ISO-10303-21;
HEADER;
FILE_DESCRIPTION (( 'STEP AP203' ),
    '1' );
FILE_NAME ('327009.step',
    '2021-12-01T10:40:13',
    ( '' ),
    ( '' ),
    'SwSTEP 2.0',
    'SolidWorks 2019',
    '' );
FILE_SCHEMA (( 'CONFIG_CONTROL_DESIGN' ));
ENDSEC;

DATA;
#1 = APPROVAL_PERSON_ORGANIZATION ( #256, #82, #97 ) ;
#2 = ORIENTED_EDGE ( 'NONE', *, *, #284, .F. ) ;
#3 = PERSON_AND_ORGANIZATION ( #203, #108 ) ;
#4 = EDGE_LOOP ( 'NONE', ( #44 ) ) ;
#5 = CC_DESIGN_DATE_AND_TIME_ASSIGNMENT ( #235, #182, ( #16 ) ) ;
#6 = CIRCLE ( 'NONE', #105, 0.3906624327025949306 ) ;
#7 = EDGE_LOOP ( 'NONE', ( #138 ) ) ;
#8 = DIRECTION ( 'NONE',  ( -3.491481338843133355E-15, 1.224646799147353207E-16, -1.000000000000000000 ) ) ;
#9 = FACE_OUTER_BOUND ( 'NONE', #20, .T. ) ;
#10 = FACE_OUTER_BOUND ( 'NONE', #4, .T. ) ;
#11 = PERSON_AND_ORGANIZATION_ROLE ( 'design_owner' ) ;
#12 = AXIS2_PLACEMENT_3D ( 'NONE', #153, #154, #219 ) ;
#13 = CARTESIAN_POINT ( 'NONE',  ( 5.951144055233101893E-14, 1.499999999999995559, 17.04475401035639948 ) ) ;
#14 = ADVANCED_FACE ( 'NONE', ( #281 ), #239, .F. ) ;
#15 = DIRECTION ( 'NONE',  ( 4.275831445896959482E-31, 1.000000000000000000, 1.224646799147353207E-16 ) ) ;
#16 = SECURITY_CLASSIFICATION ( '', '', #51 ) ;
#17 = COORDINATED_UNIVERSAL_TIME_OFFSET ( 1, 0, .AHEAD. ) ;
#18 = ADVANCED_FACE ( 'NONE', ( #262, #76 ), #243, .T. ) ;
#19 = DIRECTION ( 'NONE',  ( 0.0000000000000000000, 1.000000000000000000, 0.0000000000000000000 ) ) ;
#20 = EDGE_LOOP ( 'NONE', ( #277 ) ) ;
#21 = PLANE ( 'NONE',  #202 ) ;
#22 = AXIS2_PLACEMENT_3D ( 'NONE', #117, #183, #98 ) ;
#23 = DIRECTION ( 'NONE',  ( 3.491481338843133355E-15, -1.224646799147353207E-16, 1.000000000000000000 ) ) ;
#24 = DIRECTION ( 'NONE',  ( 3.491481338843133355E-15, -1.224646799147353207E-16, 1.000000000000000000 ) ) ;
#25 = FACE_OUTER_BOUND ( 'NONE', #211, .T. ) ;
#26 = DIRECTION ( 'NONE',  ( 0.0000000000000000000, 1.000000000000000000, 0.0000000000000000000 ) ) ;
#27 = AXIS2_PLACEMENT_3D ( 'NONE', #92, #114, #282 ) ;
#28 = CARTESIAN_POINT ( 'NONE',  ( 8.728703347107831416E-16, -3.061616997868382402E-17, 0.2499999999999999445 ) ) ;
#29 = DIRECTION ( 'NONE',  ( -3.491481338843133355E-15, 1.224646799147353207E-16, -1.000000000000000000 ) ) ;
#30 = VERTEX_POINT ( 'NONE', #84 ) ;
#31 = MANIFOLD_SOLID_BREP ( 'Corps-Déplacer/Copier1[1]', #111 ) ;
#32 = ORIENTED_EDGE ( 'NONE', *, *, #38, .T. ) ;
#33 = APPLICATION_PROTOCOL_DEFINITION ( 'international standard', 'config_control_design', 1994, #279 ) ;
#34 = CONICAL_SURFACE ( 'NONE', #47, 1.200000000000003286, 0.7853981633974453924 ) ;
#35 = CARTESIAN_POINT ( 'NONE',  ( -1.892735826383161356E-31, 0.3906624327025949306, -5.421010862427521554E-17 ) ) ;
#36 = CC_DESIGN_PERSON_AND_ORGANIZATION_ASSIGNMENT ( #87, #63, ( #157 ) ) ;
#37 =( LENGTH_UNIT ( ) NAMED_UNIT ( * ) SI_UNIT ( .MILLI., .METRE. ) );
#38 = EDGE_CURVE ( 'NONE', #174, #174, #100, .T. ) ;
#39 = CALENDAR_DATE ( 2021, 1, 12 ) ;
#40 = ORIENTED_EDGE ( 'NONE', *, *, #208, .F. ) ;
#41 = LOCAL_TIME ( 11, 40, 13.00000000000000000, #93 ) ;
#42 = CC_DESIGN_PERSON_AND_ORGANIZATION_ASSIGNMENT ( #270, #11, ( #297 ) ) ;
#43 = DIRECTION ( 'NONE',  ( 0.0000000000000000000, 1.000000000000000000, 0.0000000000000000000 ) ) ;
#44 = ORIENTED_EDGE ( 'NONE', *, *, #68, .F. ) ;
#45 = PERSON_AND_ORGANIZATION ( #203, #108 ) ;
#46 = CIRCLE ( 'NONE', #221, 0.4650000000000001910 ) ;
#47 = AXIS2_PLACEMENT_3D ( 'NONE', #263, #70, #53 ) ;
#48 = APPROVAL ( #230, 'UNSPECIFIED' ) ;
#49 = DIRECTION ( 'NONE',  ( 0.0000000000000000000, 1.000000000000000000, 0.0000000000000000000 ) ) ;
#50 = FACE_OUTER_BOUND ( 'NONE', #232, .T. ) ;
#51 = SECURITY_CLASSIFICATION_LEVEL ( 'unclassified' ) ;
#52 = DIRECTION ( 'NONE',  ( -3.491481338843133355E-15, 1.224646799147353207E-16, -1.000000000000000000 ) ) ;
#53 = DIRECTION ( 'NONE',  ( 0.0000000000000000000, 1.000000000000000000, 0.0000000000000000000 ) ) ;
#54 = PLANE ( 'NONE',  #118 ) ;
#55 = APPROVAL_PERSON_ORGANIZATION ( #116, #74, #210 ) ;
#56 = EDGE_LOOP ( 'NONE', ( #287 ) ) ;
#57 = PLANE ( 'NONE',  #60 ) ;
#58 = DIRECTION ( 'NONE',  ( -3.491481338843133355E-15, 1.224646799147353207E-16, -1.000000000000000000 ) ) ;
#59 = VERTEX_POINT ( 'NONE', #126 ) ;
#60 = AXIS2_PLACEMENT_3D ( 'NONE', #216, #29, #163 ) ;
#61 = DIRECTION ( 'NONE',  ( -3.491481338843133355E-15, 1.224646799147353207E-16, -1.000000000000000000 ) ) ;
#62 = VERTEX_POINT ( 'NONE', #200 ) ;
#63 = PERSON_AND_ORGANIZATION_ROLE ( 'creator' ) ;
#64 = DIRECTION ( 'NONE',  ( -3.491481338843133355E-15, 1.224646799147353207E-16, -1.000000000000000000 ) ) ;
#65 = EDGE_LOOP ( 'NONE', ( #96 ) ) ;
#66 = EDGE_LOOP ( 'NONE', ( #151 ) ) ;
#67 = ORIENTED_EDGE ( 'NONE', *, *, #284, .T. ) ;
#68 = EDGE_CURVE ( 'NONE', #59, #59, #46, .T. ) ;
#69 = DIRECTION ( 'NONE',  ( -3.491481338843133355E-15, 1.224646799147353207E-16, -1.000000000000000000 ) ) ;
#70 = DIRECTION ( 'NONE',  ( -3.491481338843133355E-15, 1.224646799147353207E-16, -1.000000000000000000 ) ) ;
#71 = FACE_BOUND ( 'NONE', #265, .T. ) ;
#72 = DATE_AND_TIME ( #285, #78 ) ;
#73 = FACE_OUTER_BOUND ( 'NONE', #65, .T. ) ;
#74 = APPROVAL ( #191, 'UNSPECIFIED' ) ;
#75 = CARTESIAN_POINT ( 'NONE',  ( 1.788072630929452054E-14, -6.271714529158256697E-16, 5.121243556529823771 ) ) ;
#76 = FACE_OUTER_BOUND ( 'NONE', #120, .T. ) ;
#77 = CIRCLE ( 'NONE', #195, 0.4953844939755820964 ) ;
#78 = LOCAL_TIME ( 11, 40, 13.00000000000000000, #113 ) ;
#79 = PERSON_AND_ORGANIZATION ( #203, #108 ) ;
#80 = EDGE_LOOP ( 'NONE', ( #168 ) ) ;
#81 = DIRECTION ( 'NONE',  ( -3.491481338843133355E-15, 1.224646799147353207E-16, -1.000000000000000000 ) ) ;
#82 = APPROVAL ( #147, 'UNSPECIFIED' ) ;
#83 = CARTESIAN_POINT ( 'NONE',  ( 0.0000000000000000000, 0.0000000000000000000, 0.0000000000000000000 ) ) ;
#84 = CARTESIAN_POINT ( 'NONE',  ( 1.316288464743861212E-13, 1.499999999999998668, 37.69999999999999574 ) ) ;
#85 =( NAMED_UNIT ( * ) PLANE_ANGLE_UNIT ( ) SI_UNIT ( $, .RADIAN. ) );
#86 =( NAMED_UNIT ( * ) SI_UNIT ( $, .STERADIAN. ) SOLID_ANGLE_UNIT ( ) );
#87 = PERSON_AND_ORGANIZATION ( #203, #108 ) ;
#88 = FACE_OUTER_BOUND ( 'NONE', #192, .T. ) ;
#89 = AXIS2_PLACEMENT_3D ( 'NONE', #273, #64, #252 ) ;
#90 = CARTESIAN_POINT ( 'NONE',  ( 1.326762908760390423E-13, -4.653657836759941941E-15, 38.00000000000000000 ) ) ;
#91 = EDGE_LOOP ( 'NONE', ( #161 ) ) ;
#92 = CARTESIAN_POINT ( 'NONE',  ( 5.951144055233101893E-14, -2.087380344103697370E-15, 17.04475401035639948 ) ) ;
#93 = COORDINATED_UNIVERSAL_TIME_OFFSET ( 1, 0, .AHEAD. ) ;
#94 = DIRECTION ( 'NONE',  ( -3.491481338843133355E-15, 1.224646799147353207E-16, -1.000000000000000000 ) ) ;
#95 = PERSON_AND_ORGANIZATION_ROLE ( 'creator' ) ;
#96 = ORIENTED_EDGE ( 'NONE', *, *, #135, .F. ) ;
#97 = APPROVAL_ROLE ( '' ) ;
#98 = DIRECTION ( 'NONE',  ( -4.275831445896958607E-31, -1.000000000000000000, -1.224646799147353207E-16 ) ) ;
#99 = DIRECTION ( 'NONE',  ( -3.491481338843133355E-15, 1.224646799147353207E-16, -1.000000000000000000 ) ) ;
#100 = CIRCLE ( 'NONE', #177, 1.499999999999997558 ) ;
#101 = CIRCLE ( 'NONE', #222, 0.4649999999999993028 ) ;
#102 = CC_DESIGN_APPROVAL ( #82, ( #236 ) ) ;
#103 = VERTEX_POINT ( 'NONE', #197 ) ;
#104 = CARTESIAN_POINT ( 'NONE',  ( 1.745740669421566678E-14, 0.5349999999999993650, 5.000000000000000000 ) ) ;
#105 = AXIS2_PLACEMENT_3D ( 'NONE', #259, #187, #143 ) ;
#106 = DATE_AND_TIME ( #272, #186 ) ;
#107 = FACE_OUTER_BOUND ( 'NONE', #91, .T. ) ;
#108 = ORGANIZATION ( 'UNSPECIFIED', 'UNSPECIFIED', '' ) ;
#109 = ADVANCED_FACE ( 'NONE', ( #286, #115 ), #160, .T. ) ;
#110 = EDGE_LOOP ( 'NONE', ( #212 ) ) ;
#111 = CLOSED_SHELL ( 'NONE', ( #14, #233, #276, #128, #268, #18, #133, #149 ) ) ;
#112 = AXIS2_PLACEMENT_3D ( 'NONE', #90, #231, #19 ) ;
#113 = COORDINATED_UNIVERSAL_TIME_OFFSET ( 1, 0, .AHEAD. ) ;
#114 = DIRECTION ( 'NONE',  ( 3.491481338843133355E-15, -1.224646799147353207E-16, 1.000000000000000000 ) ) ;
#115 = FACE_OUTER_BOUND ( 'NONE', #56, .T. ) ;
#116 = PERSON_AND_ORGANIZATION ( #203, #108 ) ;
#117 = CARTESIAN_POINT ( 'NONE',  ( 1.745740669421566678E-14, 4.011857418620460753E-33, 5.000000000000000000 ) ) ;
#118 = AXIS2_PLACEMENT_3D ( 'NONE', #237, #23, #170 ) ;
#119 = DIRECTION ( 'NONE',  ( 3.599869054929417164E-31, 1.000000000000000000, 1.013273058397668921E-16 ) ) ;
#120 = EDGE_LOOP ( 'NONE', ( #158 ) ) ;
#121 = CARTESIAN_POINT ( 'NONE',  ( 5.951144055233101893E-14, -2.087380344103697370E-15, 17.04475401035639948 ) ) ;
#122 = DIRECTION ( 'NONE',  ( 0.0000000000000000000, 1.000000000000000000, 0.0000000000000000000 ) ) ;
#123 = TOROIDAL_SURFACE ( 'NONE', #159, 2.465000000000000302, 2.000000000000000000 ) ;
#124 = AXIS2_PLACEMENT_3D ( 'NONE', #205, #299, #43 ) ;
#125 = CC_DESIGN_SECURITY_CLASSIFICATION ( #16, ( #236 ) ) ;
#126 = CARTESIAN_POINT ( 'NONE',  ( 3.840629472727446691E-14, 0.4649999999999988587, 11.00000000000000000 ) ) ;
#127 = CARTESIAN_POINT ( 'NONE',  ( 1.745740669421566678E-14, -6.123233995736766282E-16, 5.000000000000000000 ) ) ;
#128 = ADVANCED_FACE ( 'NONE', ( #10, #9 ), #123, .F. ) ;
#129 = MECHANICAL_CONTEXT ( 'NONE', #264, 'mechanical' ) ;
#130 = CONICAL_SURFACE ( 'NONE', #27, 1.499999999999997558, 0.1745329251994257591 ) ;
#131 = APPROVAL_DATE_TIME ( #201, #48 ) ;
#132 = MANIFOLD_SOLID_BREP ( 'Corps-Déplacer/Copier1[2]', #289 ) ;
#133 = ADVANCED_FACE ( 'NONE', ( #73, #71 ), #34, .T. ) ;
#134 = CIRCLE ( 'NONE', #266, 0.5349999999999993650 ) ;
#135 = EDGE_CURVE ( 'NONE', #30, #30, #241, .T. ) ;
#136 = DIRECTION ( 'NONE',  ( 3.491481338843133355E-15, -1.224646799147353207E-16, 1.000000000000000000 ) ) ;
#137 = COORDINATED_UNIVERSAL_TIME_OFFSET ( 1, 0, .AHEAD. ) ;
#138 = ORIENTED_EDGE ( 'NONE', *, *, #167, .F. ) ;
#139 = PERSON_AND_ORGANIZATION_ROLE ( 'classification_officer' ) ;
#140 = ORIENTED_EDGE ( 'NONE', *, *, #196, .T. ) ;
#141 = ADVANCED_BREP_SHAPE_REPRESENTATION ( '327009', ( #31, #132, #12 ), #247 ) ;
#142 = ORIENTED_EDGE ( 'NONE', *, *, #196, .F. ) ;
#143 = DIRECTION ( 'NONE',  ( 4.275831445896959482E-31, 1.000000000000000000, 1.224646799147353454E-16 ) ) ;
#144 = APPROVAL_DATE_TIME ( #72, #74 ) ;
#145 = CARTESIAN_POINT ( 'NONE',  ( 1.316288464743861212E-13, -4.616918432785521081E-15, 37.69999999999999574 ) ) ;
#146 = FACE_OUTER_BOUND ( 'NONE', #238, .T. ) ;
#147 = APPROVAL_STATUS ( 'not_yet_approved' ) ;
#148 = ORIENTED_EDGE ( 'NONE', *, *, #68, .T. ) ;
#149 = ADVANCED_FACE ( 'NONE', ( #291 ), #57, .F. ) ;
#150 = VERTEX_POINT ( 'NONE', #104 ) ;
#151 = ORIENTED_EDGE ( 'NONE', *, *, #167, .T. ) ;
#152 = CC_DESIGN_APPROVAL ( #48, ( #157 ) ) ;
#153 = CARTESIAN_POINT ( 'NONE',  ( 0.0000000000000000000, 0.0000000000000000000, 0.0000000000000000000 ) ) ;
#154 = DIRECTION ( 'NONE',  ( 0.0000000000000000000, 0.0000000000000000000, 1.000000000000000000 ) ) ;
#155 = DATE_TIME_ROLE ( 'creation_date' ) ;
#156 = AXIS2_PLACEMENT_3D ( 'NONE', #83, #229, #15 ) ;
#157 = PRODUCT_DEFINITION ( 'UNKNOWN', '', #236, #275 ) ;
#158 = ORIENTED_EDGE ( 'NONE', *, *, #135, .T. ) ;
#159 = AXIS2_PLACEMENT_3D ( 'NONE', #171, #99, #194 ) ;
#160 = CONICAL_SURFACE ( 'NONE', #250, 0.5349999999999993650, 0.5235987755982925984 ) ;
#161 = ORIENTED_EDGE ( 'NONE', *, *, #227, .F. ) ;
#162 = CIRCLE ( 'NONE', #112, 1.200000000000003286 ) ;
#163 = DIRECTION ( 'NONE',  ( 4.275831445896958607E-31, 1.000000000000000000, 1.224646799147353207E-16 ) ) ;
#164 = SHAPE_DEFINITION_REPRESENTATION ( #179, #141 ) ;
#165 = DIRECTION ( 'NONE',  ( -3.491481338843133355E-15, 1.224646799147353207E-16, -1.000000000000000000 ) ) ;
#166 = DIRECTION ( 'NONE',  ( 0.0000000000000000000, 1.000000000000000000, 0.0000000000000000000 ) ) ;
#167 = EDGE_CURVE ( 'NONE', #150, #150, #198, .T. ) ;
#168 = ORIENTED_EDGE ( 'NONE', *, *, #208, .T. ) ;
#169 = CIRCLE ( 'NONE', #295, 0.5350000000000000311 ) ;
#170 = DIRECTION ( 'NONE',  ( -4.275831445896958607E-31, -1.000000000000000000, -1.224646799147353207E-16 ) ) ;
#171 = CARTESIAN_POINT ( 'NONE',  ( 3.840629472727446691E-14, -1.301042606982605321E-15, 11.00000000000000000 ) ) ;
#172 = CARTESIAN_POINT ( 'NONE',  ( 1.788072630929452054E-14, -6.271714529158256697E-16, 5.121243556529823771 ) ) ;
#173 = VERTEX_POINT ( 'NONE', #296 ) ;
#174 = VERTEX_POINT ( 'NONE', #13 ) ;
#175 = DIRECTION ( 'NONE',  ( 0.0000000000000000000, 1.000000000000000000, 0.0000000000000000000 ) ) ;
#176 = ADVANCED_FACE ( 'NONE', ( #255 ), #21, .T. ) ;
#177 = AXIS2_PLACEMENT_3D ( 'NONE', #121, #52, #26 ) ;
#178 = CYLINDRICAL_SURFACE ( 'NONE', #89, 0.5349999999999996980 ) ;
#179 = PRODUCT_DEFINITION_SHAPE ( 'NONE', 'NONE',  #157 ) ;
#180 = CC_DESIGN_PERSON_AND_ORGANIZATION_ASSIGNMENT ( #3, #188, ( #236 ) ) ;
#181 = FACE_BOUND ( 'NONE', #220, .T. ) ;
#182 = DATE_TIME_ROLE ( 'classification_date' ) ;
#183 = DIRECTION ( 'NONE',  ( 3.491481338843133355E-15, -1.224646799147353207E-16, 1.000000000000000000 ) ) ;
#184 = CALENDAR_DATE ( 2021, 1, 12 ) ;
#185 = DIRECTION ( 'NONE',  ( 4.275831445896958607E-31, 1.000000000000000000, 1.224646799147353207E-16 ) ) ;
#186 = LOCAL_TIME ( 11, 40, 13.00000000000000000, #17 ) ;
#187 = DIRECTION ( 'NONE',  ( -3.491481338843133355E-15, 1.224646799147353207E-16, -1.000000000000000000 ) ) ;
#188 = PERSON_AND_ORGANIZATION_ROLE ( 'design_supplier' ) ;
#189 = EDGE_LOOP ( 'NONE', ( #257 ) ) ;
#190 = FACE_OUTER_BOUND ( 'NONE', #7, .T. ) ;
#191 = APPROVAL_STATUS ( 'not_yet_approved' ) ;
#192 = EDGE_LOOP ( 'NONE', ( #67 ) ) ;
#193 = DATE_AND_TIME ( #215, #41 ) ;
#194 = DIRECTION ( 'NONE',  ( 4.275831445896958607E-31, 1.000000000000000000, 1.224646799147353207E-16 ) ) ;
#195 = AXIS2_PLACEMENT_3D ( 'NONE', #226, #81, #199 ) ;
#196 = EDGE_CURVE ( 'NONE', #223, #223, #162, .T. ) ;
#197 = CARTESIAN_POINT ( 'NONE',  ( 3.961887347097083078E-14, 0.4953844939755807086, 11.34729635533384773 ) ) ;
#198 = CIRCLE ( 'NONE', #124, 0.5350000000000000311 ) ;
#199 = DIRECTION ( 'NONE',  ( 0.0000000000000000000, 1.000000000000000000, 0.0000000000000000000 ) ) ;
#200 = CARTESIAN_POINT ( 'NONE',  ( 8.728703347107833388E-16, 0.5349999999999993650, 0.2500000000000000000 ) ) ;
#201 = DATE_AND_TIME ( #39, #301 ) ;
#202 = AXIS2_PLACEMENT_3D ( 'NONE', #303, #136, #206 ) ;
#203 = PERSON ( 'UNSPECIFIED', 'UNSPECIFIED', 'UNSPECIFIED', ('UNSPECIFIED'), ('UNSPECIFIED'), ('UNSPECIFIED') ) ;
#204 = ADVANCED_FACE ( 'NONE', ( #107, #88 ), #178, .T. ) ;
#205 = CARTESIAN_POINT ( 'NONE',  ( 1.745740669421566678E-14, -6.123233995736766282E-16, 5.000000000000000000 ) ) ;
#206 = DIRECTION ( 'NONE',  ( -4.275831445896958607E-31, -1.000000000000000000, -1.224646799147353207E-16 ) ) ;
#207 = EDGE_LOOP ( 'NONE', ( #2 ) ) ;
#208 = EDGE_CURVE ( 'NONE', #293, #293, #6, .T. ) ;
#209 = FACE_BOUND ( 'NONE', #110, .T. ) ;
#210 = APPROVAL_ROLE ( '' ) ;
#211 = EDGE_LOOP ( 'NONE', ( #148 ) ) ;
#212 = ORIENTED_EDGE ( 'NONE', *, *, #290, .F. ) ;
#213 = CONICAL_SURFACE ( 'NONE', #254, 0.4649999999999993028, 0.5235987755982937086 ) ;
#214 = LOCAL_TIME ( 11, 40, 13.00000000000000000, #137 ) ;
#215 = CALENDAR_DATE ( 2021, 1, 12 ) ;
#216 = CARTESIAN_POINT ( 'NONE',  ( 1.326762908760390423E-13, 8.998558695971103225E-33, 38.00000000000000000 ) ) ;
#217 = PRODUCT_RELATED_PRODUCT_CATEGORY ( 'detail', '', ( #297 ) ) ;
#218 = CARTESIAN_POINT ( 'NONE',  ( 3.840629472727446691E-14, -1.347111479062088405E-15, 11.00000000000000000 ) ) ;
#219 = DIRECTION ( 'NONE',  ( 1.000000000000000000, 0.0000000000000000000, 0.0000000000000000000 ) ) ;
#220 = EDGE_LOOP ( 'NONE', ( #280 ) ) ;
#221 = AXIS2_PLACEMENT_3D ( 'NONE', #218, #165, #122 ) ;
#222 = AXIS2_PLACEMENT_3D ( 'NONE', #172, #61, #269 ) ;
#223 = VERTEX_POINT ( 'NONE', #248 ) ;
#224 = CC_DESIGN_PERSON_AND_ORGANIZATION_ASSIGNMENT ( #45, #139, ( #16 ) ) ;
#225 = PERSON_AND_ORGANIZATION ( #203, #108 ) ;
#226 = CARTESIAN_POINT ( 'NONE',  ( 3.961887347097083078E-14, -1.389643016053602315E-15, 11.34729635533384773 ) ) ;
#227 = EDGE_CURVE ( 'NONE', #62, #62, #134, .T. ) ;
#228 = AXIS2_PLACEMENT_3D ( 'NONE', #145, #267, #49 ) ;
#229 = DIRECTION ( 'NONE',  ( -3.491481338843133355E-15, 1.224646799147353207E-16, -1.000000000000000000 ) ) ;
#230 = APPROVAL_STATUS ( 'not_yet_approved' ) ;
#231 = DIRECTION ( 'NONE',  ( -3.491481338843133355E-15, 1.224646799147353207E-16, -1.000000000000000000 ) ) ;
#232 = EDGE_LOOP ( 'NONE', ( #274 ) ) ;
#233 = ADVANCED_FACE ( 'NONE', ( #190, #181 ), #213, .T. ) ;
#234 = AXIS2_PLACEMENT_3D ( 'NONE', #240, #94, #185 ) ;
#235 = DATE_AND_TIME ( #184, #214 ) ;
#236 = PRODUCT_DEFINITION_FORMATION_WITH_SPECIFIED_SOURCE ( 'ANY', '', #297, .NOT_KNOWN. ) ;
#237 = CARTESIAN_POINT ( 'NONE',  ( -1.781571270431760555E-31, 6.248910826228430131E-33, -5.102622919995516844E-17 ) ) ;
#238 = EDGE_LOOP ( 'NONE', ( #32 ) ) ;
#239 = PLANE ( 'NONE',  #22 ) ;
#240 = CARTESIAN_POINT ( 'NONE',  ( 0.0000000000000000000, 0.0000000000000000000, 0.0000000000000000000 ) ) ;
#241 = CIRCLE ( 'NONE', #228, 1.500000000000003331 ) ;
#242 = CC_DESIGN_APPROVAL ( #74, ( #16 ) ) ;
#243 = CYLINDRICAL_SURFACE ( 'NONE', #234, 1.500000000000000444 ) ;
#244 = CARTESIAN_POINT ( 'NONE',  ( 1.745740669421566678E-14, 0.5349999999999993650, 5.000000000000000000 ) ) ;
#245 = EDGE_LOOP ( 'NONE', ( #40 ) ) ;
#246 = CC_DESIGN_DATE_AND_TIME_ASSIGNMENT ( #106, #155, ( #157 ) ) ;
#247 =( GEOMETRIC_REPRESENTATION_CONTEXT ( 3 ) GLOBAL_UNCERTAINTY_ASSIGNED_CONTEXT ( ( #302 ) ) GLOBAL_UNIT_ASSIGNED_CONTEXT ( ( #37, #85, #86 ) ) REPRESENTATION_CONTEXT ( 'NONE', 'WORKASPACE' ) );
#248 = CARTESIAN_POINT ( 'NONE',  ( 1.326762908760390423E-13, 1.199999999999998845, 38.00000000000000000 ) ) ;
#249 = VERTEX_POINT ( 'NONE', #244 ) ;
#250 = AXIS2_PLACEMENT_3D ( 'NONE', #261, #24, #283 ) ;
#251 = COORDINATED_UNIVERSAL_TIME_OFFSET ( 1, 0, .AHEAD. ) ;
#252 = DIRECTION ( 'NONE',  ( 4.275831445896958607E-31, 1.000000000000000000, 1.224646799147353207E-16 ) ) ;
#253 = ADVANCED_FACE ( 'NONE', ( #288 ), #54, .F. ) ;
#254 = AXIS2_PLACEMENT_3D ( 'NONE', #75, #69, #166 ) ;
#255 = FACE_OUTER_BOUND ( 'NONE', #207, .T. ) ;
#256 = PERSON_AND_ORGANIZATION ( #203, #108 ) ;
#257 = ORIENTED_EDGE ( 'NONE', *, *, #38, .F. ) ;
#258 = APPROVAL_PERSON_ORGANIZATION ( #225, #48, #298 ) ;
#259 = CARTESIAN_POINT ( 'NONE',  ( -3.563142540863521110E-31, 1.249782165245686026E-32, -1.020524583999103369E-16 ) ) ;
#260 = APPROVAL_DATE_TIME ( #193, #82 ) ;
#261 = CARTESIAN_POINT ( 'NONE',  ( 8.728703347107831416E-16, -3.061616997868382402E-17, 0.2499999999999999445 ) ) ;
#262 = FACE_OUTER_BOUND ( 'NONE', #189, .T. ) ;
#263 = CARTESIAN_POINT ( 'NONE',  ( 1.326762908760390423E-13, -4.653657836759941941E-15, 38.00000000000000000 ) ) ;
#264 = APPLICATION_CONTEXT ( 'configuration controlled 3d designs of mechanical parts and assemblies' ) ;
#265 = EDGE_LOOP ( 'NONE', ( #140 ) ) ;
#266 = AXIS2_PLACEMENT_3D ( 'NONE', #28, #8, #119 ) ;
#267 = DIRECTION ( 'NONE',  ( -3.491481338843133355E-15, 1.224646799147353207E-16, -1.000000000000000000 ) ) ;
#268 = ADVANCED_FACE ( 'NONE', ( #209, #146 ), #130, .T. ) ;
#269 = DIRECTION ( 'NONE',  ( 0.0000000000000000000, 1.000000000000000000, 0.0000000000000000000 ) ) ;
#270 = PERSON_AND_ORGANIZATION ( #203, #108 ) ;
#271 = CC_DESIGN_PERSON_AND_ORGANIZATION_ASSIGNMENT ( #79, #95, ( #236 ) ) ;
#272 = CALENDAR_DATE ( 2021, 1, 12 ) ;
#273 = CARTESIAN_POINT ( 'NONE',  ( 0.0000000000000000000, 0.0000000000000000000, 0.0000000000000000000 ) ) ;
#274 = ORIENTED_EDGE ( 'NONE', *, *, #300, .F. ) ;
#275 = DESIGN_CONTEXT ( 'detailed design', #279, 'design' ) ;
#276 = ADVANCED_FACE ( 'NONE', ( #50, #25 ), #292, .T. ) ;
#277 = ORIENTED_EDGE ( 'NONE', *, *, #290, .T. ) ;
#278 = EDGE_LOOP ( 'NONE', ( #142 ) ) ;
#279 = APPLICATION_CONTEXT ( 'configuration controlled 3d designs of mechanical parts and assemblies' ) ;
#280 = ORIENTED_EDGE ( 'NONE', *, *, #300, .T. ) ;
#281 = FACE_OUTER_BOUND ( 'NONE', #66, .T. ) ;
#282 = DIRECTION ( 'NONE',  ( 0.0000000000000000000, -1.000000000000000000, 0.0000000000000000000 ) ) ;
#283 = DIRECTION ( 'NONE',  ( -3.599869054929417164E-31, -1.000000000000000000, -1.013273058397668921E-16 ) ) ;
#284 = EDGE_CURVE ( 'NONE', #249, #249, #169, .T. ) ;
#285 = CALENDAR_DATE ( 2021, 1, 12 ) ;
#286 = FACE_BOUND ( 'NONE', #245, .T. ) ;
#287 = ORIENTED_EDGE ( 'NONE', *, *, #227, .T. ) ;
#288 = FACE_OUTER_BOUND ( 'NONE', #80, .T. ) ;
#289 = CLOSED_SHELL ( 'NONE', ( #253, #109, #204, #176 ) ) ;
#290 = EDGE_CURVE ( 'NONE', #103, #103, #77, .T. ) ;
#291 = FACE_OUTER_BOUND ( 'NONE', #278, .T. ) ;
#292 = CYLINDRICAL_SURFACE ( 'NONE', #156, 0.4649999999999997469 ) ;
#293 = VERTEX_POINT ( 'NONE', #35 ) ;
#294 = APPLICATION_PROTOCOL_DEFINITION ( 'international standard', 'config_control_design', 1994, #264 ) ;
#295 = AXIS2_PLACEMENT_3D ( 'NONE', #127, #58, #175 ) ;
#296 = CARTESIAN_POINT ( 'NONE',  ( 1.788072630929452054E-14, 0.4649999999999986922, 5.121243556529823771 ) ) ;
#297 = PRODUCT ( '327009', '327009', '', ( #129 ) ) ;
#298 = APPROVAL_ROLE ( '' ) ;
#299 = DIRECTION ( 'NONE',  ( -3.491481338843133355E-15, 1.224646799147353207E-16, -1.000000000000000000 ) ) ;
#300 = EDGE_CURVE ( 'NONE', #173, #173, #101, .T. ) ;
#301 = LOCAL_TIME ( 11, 40, 13.00000000000000000, #251 ) ;
#302 = UNCERTAINTY_MEASURE_WITH_UNIT (LENGTH_MEASURE( 1.000000000000000082E-05 ), #37, 'distance_accuracy_value', 'NONE');
#303 = CARTESIAN_POINT ( 'NONE',  ( 1.745740669421566678E-14, 4.011857418620460753E-33, 5.000000000000000000 ) ) ;
ENDSEC;
END-ISO-10303-21;
