ISO-10303-21;
HEADER;
FILE_DESCRIPTION (( 'STEP AP203' ),
    '1' );
FILE_NAME ('327008.step',
    '2021-12-01T10:40:13',
    ( '' ),
    ( '' ),
    'SwSTEP 2.0',
    'SolidWorks 2019',
    '' );
FILE_SCHEMA (( 'CONFIG_CONTROL_DESIGN' ));
ENDSEC;

DATA;
#1 = PLANE ( 'NONE',  #2 ) ;
#2 = AXIS2_PLACEMENT_3D ( 'NONE', #25, #162, #72 ) ;
#3 = CARTESIAN_POINT ( 'NONE',  ( 1.745740669421566678E-14, -6.123233995736766282E-16, 5.000000000000000000 ) ) ;
#4 = CYLINDRICAL_SURFACE ( 'NONE', #66, 0.5299999999999996936 ) ;
#5 = APPLICATION_CONTEXT ( 'configuration controlled 3d designs of mechanical parts and assemblies' ) ;
#6 =( NAMED_UNIT ( * ) PLANE_ANGLE_UNIT ( ) SI_UNIT ( $, .RADIAN. ) );
#7 = ADVANCED_FACE ( 'NONE', ( #42, #273 ), #260, .T. ) ;
#8 = CIRCLE ( 'NONE', #31, 0.5300000000000000266 ) ;
#9 = SECURITY_CLASSIFICATION ( '', '', #137 ) ;
#10 = MECHANICAL_CONTEXT ( 'NONE', #263, 'mechanical' ) ;
#11 = SHAPE_DEFINITION_REPRESENTATION ( #36, #177 ) ;
#12 = DIRECTION ( 'NONE',  ( -4.275831445896958607E-31, -1.000000000000000000, -1.224646799147353207E-16 ) ) ;
#13 = AXIS2_PLACEMENT_3D ( 'NONE', #77, #80, #167 ) ;
#14 = DIRECTION ( 'NONE',  ( -3.491481338843133355E-15, 1.224646799147353207E-16, -1.000000000000000000 ) ) ;
#15 = FACE_OUTER_BOUND ( 'NONE', #129, .T. ) ;
#16 = EDGE_CURVE ( 'NONE', #146, #146, #296, .T. ) ;
#17 = APPROVAL_PERSON_ORGANIZATION ( #225, #19, #90 ) ;
#18 = FACE_OUTER_BOUND ( 'NONE', #102, .T. ) ;
#19 = APPROVAL ( #20, 'UNSPECIFIED' ) ;
#20 = APPROVAL_STATUS ( 'not_yet_approved' ) ;
#21 = EDGE_LOOP ( 'NONE', ( #88 ) ) ;
#22 = DIRECTION ( 'NONE',  ( 0.0000000000000000000, 1.000000000000000000, 0.0000000000000000000 ) ) ;
#23 = COORDINATED_UNIVERSAL_TIME_OFFSET ( 1, 0, .AHEAD. ) ;
#24 = DIRECTION ( 'NONE',  ( -3.491481338843133355E-15, 1.224646799147353207E-16, -1.000000000000000000 ) ) ;
#25 = CARTESIAN_POINT ( 'NONE',  ( 1.326762908760390423E-13, 8.998558695971103225E-33, 38.00000000000000000 ) ) ;
#26 = APPROVAL_STATUS ( 'not_yet_approved' ) ;
#27 = AXIS2_PLACEMENT_3D ( 'NONE', #69, #111, #135 ) ;
#28 = DIRECTION ( 'NONE',  ( 0.0000000000000000000, 1.000000000000000000, 0.0000000000000000000 ) ) ;
#29 = DIRECTION ( 'NONE',  ( 0.0000000000000000000, 1.000000000000000000, 0.0000000000000000000 ) ) ;
#30 = CARTESIAN_POINT ( 'NONE',  ( 1.745740669421566678E-14, 0.5299999999999993605, 5.000000000000000000 ) ) ;
#31 = AXIS2_PLACEMENT_3D ( 'NONE', #3, #231, #163 ) ;
#32 = DIRECTION ( 'NONE',  ( 0.0000000000000000000, 1.000000000000000000, 0.0000000000000000000 ) ) ;
#33 = APPROVAL ( #60, 'UNSPECIFIED' ) ;
#34 = VERTEX_POINT ( 'NONE', #100 ) ;
#35 = CARTESIAN_POINT ( 'NONE',  ( 8.728703347107831416E-16, -3.061616997868382402E-17, 0.2499999999999999445 ) ) ;
#36 = PRODUCT_DEFINITION_SHAPE ( 'NONE', 'NONE',  #87 ) ;
#37 = ADVANCED_FACE ( 'NONE', ( #226, #15 ), #40, .T. ) ;
#38 = ORIENTED_EDGE ( 'NONE', *, *, #47, .F. ) ;
#39 = DIRECTION ( 'NONE',  ( -3.491481338843133355E-15, 1.224646799147353207E-16, -1.000000000000000000 ) ) ;
#40 = CYLINDRICAL_SURFACE ( 'NONE', #75, 0.4649999999999997469 ) ;
#41 = ADVANCED_FACE ( 'NONE', ( #18 ), #105, .T. ) ;
#42 = FACE_OUTER_BOUND ( 'NONE', #197, .T. ) ;
#43 = DIRECTION ( 'NONE',  ( 4.275831445896958607E-31, 1.000000000000000000, 1.224646799147353207E-16 ) ) ;
#44 = CIRCLE ( 'NONE', #192, 0.4649999999999993028 ) ;
#45 = DIRECTION ( 'NONE',  ( -3.491481338843133355E-15, 1.224646799147353207E-16, -1.000000000000000000 ) ) ;
#46 = DATE_AND_TIME ( #256, #188 ) ;
#47 = EDGE_CURVE ( 'NONE', #117, #117, #221, .T. ) ;
#48 = CARTESIAN_POINT ( 'NONE',  ( 1.785048919393174549E-14, -6.261108776771007241E-16, 5.112583302491979786 ) ) ;
#49 = PERSON_AND_ORGANIZATION_ROLE ( 'design_supplier' ) ;
#50 = FACE_OUTER_BOUND ( 'NONE', #176, .T. ) ;
#51 = CYLINDRICAL_SURFACE ( 'NONE', #246, 1.500000000000000444 ) ;
#52 = AXIS2_PLACEMENT_3D ( 'NONE', #54, #143, #32 ) ;
#53 = CALENDAR_DATE ( 2021, 1, 12 ) ;
#54 = CARTESIAN_POINT ( 'NONE',  ( 1.316288464743861212E-13, -4.616918432785521081E-15, 37.69999999999999574 ) ) ;
#55 = AXIS2_PLACEMENT_3D ( 'NONE', #153, #91, #269 ) ;
#56 =( NAMED_UNIT ( * ) SI_UNIT ( $, .STERADIAN. ) SOLID_ANGLE_UNIT ( ) );
#57 = AXIS2_PLACEMENT_3D ( 'NONE', #71, #275, #28 ) ;
#58 = MANIFOLD_SOLID_BREP ( 'Corps-Déplacer/Copier1[2]', #227 ) ;
#59 = CC_DESIGN_SECURITY_CLASSIFICATION ( #9, ( #109 ) ) ;
#60 = APPROVAL_STATUS ( 'not_yet_approved' ) ;
#61 = VERTEX_POINT ( 'NONE', #236 ) ;
#62 = EDGE_LOOP ( 'NONE', ( #290 ) ) ;
#63 = EDGE_LOOP ( 'NONE', ( #174 ) ) ;
#64 = ORIENTED_EDGE ( 'NONE', *, *, #130, .T. ) ;
#65 = CARTESIAN_POINT ( 'NONE',  ( 1.326762908760390423E-13, -4.653657836759941941E-15, 38.00000000000000000 ) ) ;
#66 = AXIS2_PLACEMENT_3D ( 'NONE', #228, #257, #300 ) ;
#67 = DIRECTION ( 'NONE',  ( 0.0000000000000000000, 1.000000000000000000, 0.0000000000000000000 ) ) ;
#68 = CALENDAR_DATE ( 2021, 1, 12 ) ;
#69 = CARTESIAN_POINT ( 'NONE',  ( 5.951144055233101893E-14, -2.087380344103697370E-15, 17.04475401035639948 ) ) ;
#70 = DIRECTION ( 'NONE',  ( -3.633830083749506071E-31, -1.000000000000000000, -1.022832238193873363E-16 ) ) ;
#71 = CARTESIAN_POINT ( 'NONE',  ( 3.961887347097083078E-14, -1.389643016053602315E-15, 11.34729635533384773 ) ) ;
#72 = DIRECTION ( 'NONE',  ( 4.275831445896958607E-31, 1.000000000000000000, 1.224646799147353207E-16 ) ) ;
#73 = PLANE ( 'NONE',  #152 ) ;
#74 = ADVANCED_FACE ( 'NONE', ( #93, #113 ), #4, .T. ) ;
#75 = AXIS2_PLACEMENT_3D ( 'NONE', #103, #224, #128 ) ;
#76 = CARTESIAN_POINT ( 'NONE',  ( 3.840629472727446691E-14, 0.4649999999999988587, 11.00000000000000000 ) ) ;
#77 = CARTESIAN_POINT ( 'NONE',  ( 0.0000000000000000000, 0.0000000000000000000, 0.0000000000000000000 ) ) ;
#78 = APPLICATION_PROTOCOL_DEFINITION ( 'international standard', 'config_control_design', 1994, #5 ) ;
#79 = ADVANCED_FACE ( 'NONE', ( #182, #95 ), #51, .T. ) ;
#80 = DIRECTION ( 'NONE',  ( 0.0000000000000000000, 0.0000000000000000000, 1.000000000000000000 ) ) ;
#81 = AXIS2_PLACEMENT_3D ( 'NONE', #252, #201, #97 ) ;
#82 = FACE_OUTER_BOUND ( 'NONE', #295, .T. ) ;
#83 = EDGE_CURVE ( 'NONE', #141, #141, #142, .T. ) ;
#84 = ORIENTED_EDGE ( 'NONE', *, *, #83, .T. ) ;
#85 = CONICAL_SURFACE ( 'NONE', #81, 0.4649999999999993028, 0.5235987755982930425 ) ;
#86 = EDGE_LOOP ( 'NONE', ( #274 ) ) ;
#87 = PRODUCT_DEFINITION ( 'UNKNOWN', '', #109, #301 ) ;
#88 = ORIENTED_EDGE ( 'NONE', *, *, #127, .T. ) ;
#89 = ORIENTED_EDGE ( 'NONE', *, *, #203, .T. ) ;
#90 = APPROVAL_ROLE ( '' ) ;
#91 = DIRECTION ( 'NONE',  ( 3.491481338843133355E-15, -1.224646799147353207E-16, 1.000000000000000000 ) ) ;
#92 = CALENDAR_DATE ( 2021, 1, 12 ) ;
#93 = FACE_OUTER_BOUND ( 'NONE', #151, .T. ) ;
#94 = FACE_OUTER_BOUND ( 'NONE', #173, .T. ) ;
#95 = FACE_OUTER_BOUND ( 'NONE', #219, .T. ) ;
#96 = PERSON_AND_ORGANIZATION_ROLE ( 'classification_officer' ) ;
#97 = DIRECTION ( 'NONE',  ( 0.0000000000000000000, 1.000000000000000000, 0.0000000000000000000 ) ) ;
#98 = AXIS2_PLACEMENT_3D ( 'NONE', #65, #39, #243 ) ;
#99 = CIRCLE ( 'NONE', #159, 0.4650000000000001910 ) ;
#100 = CARTESIAN_POINT ( 'NONE',  ( 1.785048919393174549E-14, 0.4649999999999986922, 5.112583302491979786 ) ) ;
#101 = CIRCLE ( 'NONE', #52, 1.500000000000003331 ) ;
#102 = EDGE_LOOP ( 'NONE', ( #123 ) ) ;
#103 = CARTESIAN_POINT ( 'NONE',  ( 0.0000000000000000000, 0.0000000000000000000, 0.0000000000000000000 ) ) ;
#104 = ORIENTED_EDGE ( 'NONE', *, *, #161, .T. ) ;
#105 = PLANE ( 'NONE',  #55 ) ;
#106 = APPROVAL_ROLE ( '' ) ;
#107 = ORIENTED_EDGE ( 'NONE', *, *, #83, .F. ) ;
#108 = AXIS2_PLACEMENT_3D ( 'NONE', #186, #24, #22 ) ;
#109 = PRODUCT_DEFINITION_FORMATION_WITH_SPECIFIED_SOURCE ( 'ANY', '', #287, .NOT_KNOWN. ) ;
#110 = ADVANCED_FACE ( 'NONE', ( #115 ), #1, .F. ) ;
#111 = DIRECTION ( 'NONE',  ( 3.491481338843133355E-15, -1.224646799147353207E-16, 1.000000000000000000 ) ) ;
#112 = DIRECTION ( 'NONE',  ( -4.275831445896958607E-31, -1.000000000000000000, -1.224646799147353207E-16 ) ) ;
#113 = FACE_OUTER_BOUND ( 'NONE', #222, .T. ) ;
#114 = FACE_BOUND ( 'NONE', #271, .T. ) ;
#115 = FACE_OUTER_BOUND ( 'NONE', #244, .T. ) ;
#116 = CARTESIAN_POINT ( 'NONE',  ( 8.728703347107833388E-16, 0.5299999999999993605, 0.2500000000000000000 ) ) ;
#117 = VERTEX_POINT ( 'NONE', #116 ) ;
#118 = CARTESIAN_POINT ( 'NONE',  ( 1.326762908760390423E-13, 1.199999999999998845, 38.00000000000000000 ) ) ;
#119 = VERTEX_POINT ( 'NONE', #193 ) ;
#120 = CARTESIAN_POINT ( 'NONE',  ( -1.770881691817018198E-31, 6.211416831661884785E-33, -5.072006750016833082E-17 ) ) ;
#121 = CC_DESIGN_APPROVAL ( #33, ( #87 ) ) ;
#122 = CC_DESIGN_APPROVAL ( #19, ( #9 ) ) ;
#123 = ORIENTED_EDGE ( 'NONE', *, *, #16, .F. ) ;
#124 = UNCERTAINTY_MEASURE_WITH_UNIT (LENGTH_MEASURE( 1.000000000000000082E-05 ), #217, 'distance_accuracy_value', 'NONE');
#125 = ORIENTED_EDGE ( 'NONE', *, *, #218, .T. ) ;
#126 = EDGE_LOOP ( 'NONE', ( #196 ) ) ;
#127 = EDGE_CURVE ( 'NONE', #34, #34, #44, .T. ) ;
#128 = DIRECTION ( 'NONE',  ( 4.275831445896959482E-31, 1.000000000000000000, 1.224646799147353207E-16 ) ) ;
#129 = EDGE_LOOP ( 'NONE', ( #125 ) ) ;
#130 = EDGE_CURVE ( 'NONE', #187, #187, #291, .T. ) ;
#131 = CARTESIAN_POINT ( 'NONE',  ( 3.840629472727446691E-14, -1.301042606982605321E-15, 11.00000000000000000 ) ) ;
#132 = AXIS2_PLACEMENT_3D ( 'NONE', #179, #250, #278 ) ;
#133 = LOCAL_TIME ( 11, 40, 13.00000000000000000, #171 ) ;
#134 = DIRECTION ( 'NONE',  ( 3.491481338843133355E-15, -1.224646799147353207E-16, 1.000000000000000000 ) ) ;
#135 = DIRECTION ( 'NONE',  ( 0.0000000000000000000, -1.000000000000000000, 0.0000000000000000000 ) ) ;
#136 = ADVANCED_FACE ( 'NONE', ( #184, #155 ), #85, .T. ) ;
#137 = SECURITY_CLASSIFICATION_LEVEL ( 'unclassified' ) ;
#138 = CARTESIAN_POINT ( 'NONE',  ( 8.728703347107831416E-16, -3.061616997868382402E-17, 0.2499999999999999445 ) ) ;
#139 = CLOSED_SHELL ( 'NONE', ( #251, #136, #37, #183, #145, #79, #7, #110 ) ) ;
#140 = DIRECTION ( 'NONE',  ( 4.275831445896958607E-31, 1.000000000000000000, 1.224646799147353207E-16 ) ) ;
#141 = VERTEX_POINT ( 'NONE', #118 ) ;
#142 = CIRCLE ( 'NONE', #216, 1.200000000000003286 ) ;
#143 = DIRECTION ( 'NONE',  ( -3.491481338843133355E-15, 1.224646799147353207E-16, -1.000000000000000000 ) ) ;
#144 = PERSON_AND_ORGANIZATION ( #211, #149 ) ;
#145 = ADVANCED_FACE ( 'NONE', ( #114, #302 ), #206, .T. ) ;
#146 = VERTEX_POINT ( 'NONE', #30 ) ;
#147 = CONICAL_SURFACE ( 'NONE', #229, 0.5299999999999993605, 0.5235987755982928205 ) ;
#148 = EDGE_LOOP ( 'NONE', ( #294 ) ) ;
#149 = ORGANIZATION ( 'UNSPECIFIED', 'UNSPECIFIED', '' ) ;
#150 = EDGE_LOOP ( 'NONE', ( #248 ) ) ;
#151 = EDGE_LOOP ( 'NONE', ( #38 ) ) ;
#152 = AXIS2_PLACEMENT_3D ( 'NONE', #259, #134, #112 ) ;
#153 = CARTESIAN_POINT ( 'NONE',  ( 1.745740669421566678E-14, 3.974363424053914039E-33, 5.000000000000000000 ) ) ;
#154 = DATE_AND_TIME ( #68, #284 ) ;
#155 = FACE_BOUND ( 'NONE', #21, .T. ) ;
#156 = DATE_AND_TIME ( #92, #299 ) ;
#157 = CARTESIAN_POINT ( 'NONE',  ( 3.840629472727446691E-14, -1.347111479062088405E-15, 11.00000000000000000 ) ) ;
#158 = MANIFOLD_SOLID_BREP ( 'Corps-Déplacer/Copier1[1]', #139 ) ;
#159 = AXIS2_PLACEMENT_3D ( 'NONE', #157, #45, #208 ) ;
#160 = DIRECTION ( 'NONE',  ( -3.491481338843133355E-15, 1.224646799147353207E-16, -1.000000000000000000 ) ) ;
#161 = EDGE_CURVE ( 'NONE', #119, #119, #165, .T. ) ;
#162 = DIRECTION ( 'NONE',  ( -3.491481338843133355E-15, 1.224646799147353207E-16, -1.000000000000000000 ) ) ;
#163 = DIRECTION ( 'NONE',  ( 0.0000000000000000000, 1.000000000000000000, 0.0000000000000000000 ) ) ;
#164 = AXIS2_PLACEMENT_3D ( 'NONE', #199, #247, #67 ) ;
#165 = CIRCLE ( 'NONE', #132, 0.3856624327025948706 ) ;
#166 = CARTESIAN_POINT ( 'NONE',  ( 1.316288464743861212E-13, 1.499999999999998668, 37.69999999999999574 ) ) ;
#167 = DIRECTION ( 'NONE',  ( 1.000000000000000000, 0.0000000000000000000, 0.0000000000000000000 ) ) ;
#168 = PERSON_AND_ORGANIZATION ( #211, #149 ) ;
#169 = CC_DESIGN_PERSON_AND_ORGANIZATION_ASSIGNMENT ( #204, #303, ( #109 ) ) ;
#170 = DATE_AND_TIME ( #53, #133 ) ;
#171 = COORDINATED_UNIVERSAL_TIME_OFFSET ( 1, 0, .AHEAD. ) ;
#172 = ORIENTED_EDGE ( 'NONE', *, *, #276, .T. ) ;
#173 = EDGE_LOOP ( 'NONE', ( #64 ) ) ;
#174 = ORIENTED_EDGE ( 'NONE', *, *, #203, .F. ) ;
#175 = CC_DESIGN_PERSON_AND_ORGANIZATION_ASSIGNMENT ( #207, #96, ( #9 ) ) ;
#176 = EDGE_LOOP ( 'NONE', ( #270 ) ) ;
#177 = ADVANCED_BREP_SHAPE_REPRESENTATION ( '327008', ( #158, #58, #13 ), #253 ) ;
#178 = COORDINATED_UNIVERSAL_TIME_OFFSET ( 1, 0, .AHEAD. ) ;
#179 = CARTESIAN_POINT ( 'NONE',  ( -3.541763383634036395E-31, 1.242283366332376957E-32, -1.014401350003366616E-16 ) ) ;
#180 = DIRECTION ( 'NONE',  ( -3.491481338843133355E-15, 1.224646799147353207E-16, -1.000000000000000000 ) ) ;
#181 = DATE_TIME_ROLE ( 'classification_date' ) ;
#182 = FACE_OUTER_BOUND ( 'NONE', #63, .T. ) ;
#183 = ADVANCED_FACE ( 'NONE', ( #281, #94 ), #191, .F. ) ;
#184 = FACE_OUTER_BOUND ( 'NONE', #62, .T. ) ;
#185 = DATE_AND_TIME ( #249, #214 ) ;
#186 = CARTESIAN_POINT ( 'NONE',  ( 5.951144055233101893E-14, -2.087380344103697370E-15, 17.04475401035639948 ) ) ;
#187 = VERTEX_POINT ( 'NONE', #212 ) ;
#188 = LOCAL_TIME ( 11, 40, 13.00000000000000000, #254 ) ;
#189 = PERSON_AND_ORGANIZATION_ROLE ( 'design_owner' ) ;
#190 = VERTEX_POINT ( 'NONE', #166 ) ;
#191 = TOROIDAL_SURFACE ( 'NONE', #200, 2.465000000000000302, 2.000000000000000000 ) ;
#192 = AXIS2_PLACEMENT_3D ( 'NONE', #48, #210, #205 ) ;
#193 = CARTESIAN_POINT ( 'NONE',  ( -1.892735826383161575E-31, 0.3856624327025948706, -5.421010862427522170E-17 ) ) ;
#194 = DIRECTION ( 'NONE',  ( 3.633830083749506071E-31, 1.000000000000000000, 1.022832238193873363E-16 ) ) ;
#195 = CC_DESIGN_PERSON_AND_ORGANIZATION_ASSIGNMENT ( #144, #239, ( #87 ) ) ;
#196 = ORIENTED_EDGE ( 'NONE', *, *, #218, .F. ) ;
#197 = EDGE_LOOP ( 'NONE', ( #245 ) ) ;
#198 = ORIENTED_EDGE ( 'NONE', *, *, #130, .F. ) ;
#199 = CARTESIAN_POINT ( 'NONE',  ( 1.745740669421566678E-14, -6.123233995736766282E-16, 5.000000000000000000 ) ) ;
#200 = AXIS2_PLACEMENT_3D ( 'NONE', #131, #160, #43 ) ;
#201 = DIRECTION ( 'NONE',  ( -3.491481338843133355E-15, 1.224646799147353207E-16, -1.000000000000000000 ) ) ;
#202 = DIRECTION ( 'NONE',  ( -3.491481338843133355E-15, 1.224646799147353207E-16, -1.000000000000000000 ) ) ;
#203 = EDGE_CURVE ( 'NONE', #61, #61, #242, .T. ) ;
#204 = PERSON_AND_ORGANIZATION ( #211, #149 ) ;
#205 = DIRECTION ( 'NONE',  ( 0.0000000000000000000, 1.000000000000000000, 0.0000000000000000000 ) ) ;
#206 = CONICAL_SURFACE ( 'NONE', #27, 1.499999999999997558, 0.1745329251994257591 ) ;
#207 = PERSON_AND_ORGANIZATION ( #211, #149 ) ;
#208 = DIRECTION ( 'NONE',  ( 0.0000000000000000000, 1.000000000000000000, 0.0000000000000000000 ) ) ;
#209 = CC_DESIGN_DATE_AND_TIME_ASSIGNMENT ( #185, #181, ( #9 ) ) ;
#210 = DIRECTION ( 'NONE',  ( -3.491481338843133355E-15, 1.224646799147353207E-16, -1.000000000000000000 ) ) ;
#211 = PERSON ( 'UNSPECIFIED', 'UNSPECIFIED', 'UNSPECIFIED', ('UNSPECIFIED'), ('UNSPECIFIED'), ('UNSPECIFIED') ) ;
#212 = CARTESIAN_POINT ( 'NONE',  ( 3.961887347097083078E-14, 0.4953844939755807086, 11.34729635533384773 ) ) ;
#213 = PERSON_AND_ORGANIZATION ( #211, #149 ) ;
#214 = LOCAL_TIME ( 11, 40, 13.00000000000000000, #23 ) ;
#215 = ADVANCED_FACE ( 'NONE', ( #255, #50 ), #147, .T. ) ;
#216 = AXIS2_PLACEMENT_3D ( 'NONE', #235, #180, #29 ) ;
#217 =( LENGTH_UNIT ( ) NAMED_UNIT ( * ) SI_UNIT ( .MILLI., .METRE. ) );
#218 = EDGE_CURVE ( 'NONE', #289, #289, #99, .T. ) ;
#219 = EDGE_LOOP ( 'NONE', ( #172 ) ) ;
#220 = EDGE_LOOP ( 'NONE', ( #84 ) ) ;
#221 = CIRCLE ( 'NONE', #240, 0.5299999999999993605 ) ;
#222 = EDGE_LOOP ( 'NONE', ( #298 ) ) ;
#223 = APPROVAL ( #26, 'UNSPECIFIED' ) ;
#224 = DIRECTION ( 'NONE',  ( -3.491481338843133355E-15, 1.224646799147353207E-16, -1.000000000000000000 ) ) ;
#225 = PERSON_AND_ORGANIZATION ( #211, #149 ) ;
#226 = FACE_OUTER_BOUND ( 'NONE', #148, .T. ) ;
#227 = CLOSED_SHELL ( 'NONE', ( #272, #215, #74, #41 ) ) ;
#228 = CARTESIAN_POINT ( 'NONE',  ( 0.0000000000000000000, 0.0000000000000000000, 0.0000000000000000000 ) ) ;
#229 = AXIS2_PLACEMENT_3D ( 'NONE', #138, #233, #70 ) ;
#230 = DATE_TIME_ROLE ( 'creation_date' ) ;
#231 = DIRECTION ( 'NONE',  ( -3.491481338843133355E-15, 1.224646799147353207E-16, -1.000000000000000000 ) ) ;
#232 = CARTESIAN_POINT ( 'NONE',  ( 0.0000000000000000000, 0.0000000000000000000, 0.0000000000000000000 ) ) ;
#233 = DIRECTION ( 'NONE',  ( 3.491481338843133355E-15, -1.224646799147353207E-16, 1.000000000000000000 ) ) ;
#234 = CC_DESIGN_PERSON_AND_ORGANIZATION_ASSIGNMENT ( #280, #49, ( #109 ) ) ;
#235 = CARTESIAN_POINT ( 'NONE',  ( 1.326762908760390423E-13, -4.653657836759941941E-15, 38.00000000000000000 ) ) ;
#236 = CARTESIAN_POINT ( 'NONE',  ( 5.951144055233101893E-14, 1.499999999999995559, 17.04475401035639948 ) ) ;
#237 = DIRECTION ( 'NONE',  ( 3.491481338843133355E-15, -1.224646799147353207E-16, 1.000000000000000000 ) ) ;
#238 = AXIS2_PLACEMENT_3D ( 'NONE', #120, #237, #12 ) ;
#239 = PERSON_AND_ORGANIZATION_ROLE ( 'creator' ) ;
#240 = AXIS2_PLACEMENT_3D ( 'NONE', #35, #14, #194 ) ;
#241 = EDGE_CURVE ( 'NONE', #286, #286, #8, .T. ) ;
#242 = CIRCLE ( 'NONE', #108, 1.499999999999997558 ) ;
#243 = DIRECTION ( 'NONE',  ( 0.0000000000000000000, 1.000000000000000000, 0.0000000000000000000 ) ) ;
#244 = EDGE_LOOP ( 'NONE', ( #107 ) ) ;
#245 = ORIENTED_EDGE ( 'NONE', *, *, #276, .F. ) ;
#246 = AXIS2_PLACEMENT_3D ( 'NONE', #232, #202, #140 ) ;
#247 = DIRECTION ( 'NONE',  ( -3.491481338843133355E-15, 1.224646799147353207E-16, -1.000000000000000000 ) ) ;
#248 = ORIENTED_EDGE ( 'NONE', *, *, #241, .T. ) ;
#249 = CALENDAR_DATE ( 2021, 1, 12 ) ;
#250 = DIRECTION ( 'NONE',  ( -3.491481338843133355E-15, 1.224646799147353207E-16, -1.000000000000000000 ) ) ;
#251 = ADVANCED_FACE ( 'NONE', ( #282 ), #73, .F. ) ;
#252 = CARTESIAN_POINT ( 'NONE',  ( 1.785048919393174549E-14, -6.261108776771007241E-16, 5.112583302491979786 ) ) ;
#253 =( GEOMETRIC_REPRESENTATION_CONTEXT ( 3 ) GLOBAL_UNCERTAINTY_ASSIGNED_CONTEXT ( ( #124 ) ) GLOBAL_UNIT_ASSIGNED_CONTEXT ( ( #217, #6, #56 ) ) REPRESENTATION_CONTEXT ( 'NONE', 'WORKASPACE' ) );
#254 = COORDINATED_UNIVERSAL_TIME_OFFSET ( 1, 0, .AHEAD. ) ;
#255 = FACE_BOUND ( 'NONE', #86, .T. ) ;
#256 = CALENDAR_DATE ( 2021, 1, 12 ) ;
#257 = DIRECTION ( 'NONE',  ( -3.491481338843133355E-15, 1.224646799147353207E-16, -1.000000000000000000 ) ) ;
#258 = COORDINATED_UNIVERSAL_TIME_OFFSET ( 1, 0, .AHEAD. ) ;
#259 = CARTESIAN_POINT ( 'NONE',  ( 1.745740669421566678E-14, 3.974363424053914039E-33, 5.000000000000000000 ) ) ;
#260 = CONICAL_SURFACE ( 'NONE', #98, 1.200000000000003286, 0.7853981633974453924 ) ;
#261 = APPROVAL_PERSON_ORGANIZATION ( #168, #33, #262 ) ;
#262 = APPROVAL_ROLE ( '' ) ;
#263 = APPLICATION_CONTEXT ( 'configuration controlled 3d designs of mechanical parts and assemblies' ) ;
#264 = PLANE ( 'NONE',  #238 ) ;
#265 = APPROVAL_DATE_TIME ( #170, #33 ) ;
#266 = CC_DESIGN_APPROVAL ( #223, ( #109 ) ) ;
#267 = CARTESIAN_POINT ( 'NONE',  ( 1.745740669421566678E-14, 0.5299999999999993605, 5.000000000000000000 ) ) ;
#268 = PRODUCT_RELATED_PRODUCT_CATEGORY ( 'detail', '', ( #287 ) ) ;
#269 = DIRECTION ( 'NONE',  ( -4.275831445896958607E-31, -1.000000000000000000, -1.224646799147353207E-16 ) ) ;
#270 = ORIENTED_EDGE ( 'NONE', *, *, #47, .T. ) ;
#271 = EDGE_LOOP ( 'NONE', ( #198 ) ) ;
#272 = ADVANCED_FACE ( 'NONE', ( #82 ), #264, .F. ) ;
#273 = FACE_BOUND ( 'NONE', #220, .T. ) ;
#274 = ORIENTED_EDGE ( 'NONE', *, *, #161, .F. ) ;
#275 = DIRECTION ( 'NONE',  ( -3.491481338843133355E-15, 1.224646799147353207E-16, -1.000000000000000000 ) ) ;
#276 = EDGE_CURVE ( 'NONE', #190, #190, #101, .T. ) ;
#277 = APPROVAL_DATE_TIME ( #154, #19 ) ;
#278 = DIRECTION ( 'NONE',  ( 4.275831445896958607E-31, 1.000000000000000000, 1.224646799147353454E-16 ) ) ;
#279 = PERSON_AND_ORGANIZATION ( #211, #149 ) ;
#280 = PERSON_AND_ORGANIZATION ( #211, #149 ) ;
#281 = FACE_OUTER_BOUND ( 'NONE', #126, .T. ) ;
#282 = FACE_OUTER_BOUND ( 'NONE', #150, .T. ) ;
#283 = APPLICATION_PROTOCOL_DEFINITION ( 'international standard', 'config_control_design', 1994, #263 ) ;
#284 = LOCAL_TIME ( 11, 40, 13.00000000000000000, #178 ) ;
#285 = CC_DESIGN_DATE_AND_TIME_ASSIGNMENT ( #156, #230, ( #87 ) ) ;
#286 = VERTEX_POINT ( 'NONE', #267 ) ;
#287 = PRODUCT ( '327008', '327008', '', ( #10 ) ) ;
#288 = CC_DESIGN_PERSON_AND_ORGANIZATION_ASSIGNMENT ( #213, #189, ( #287 ) ) ;
#289 = VERTEX_POINT ( 'NONE', #76 ) ;
#290 = ORIENTED_EDGE ( 'NONE', *, *, #241, .F. ) ;
#291 = CIRCLE ( 'NONE', #57, 0.4953844939755820964 ) ;
#292 = EDGE_LOOP ( 'NONE', ( #89 ) ) ;
#293 = APPROVAL_PERSON_ORGANIZATION ( #279, #223, #106 ) ;
#294 = ORIENTED_EDGE ( 'NONE', *, *, #127, .F. ) ;
#295 = EDGE_LOOP ( 'NONE', ( #104 ) ) ;
#296 = CIRCLE ( 'NONE', #164, 0.5300000000000000266 ) ;
#297 = APPROVAL_DATE_TIME ( #46, #223 ) ;
#298 = ORIENTED_EDGE ( 'NONE', *, *, #16, .T. ) ;
#299 = LOCAL_TIME ( 11, 40, 13.00000000000000000, #258 ) ;
#300 = DIRECTION ( 'NONE',  ( 4.275831445896958607E-31, 1.000000000000000000, 1.224646799147352961E-16 ) ) ;
#301 = DESIGN_CONTEXT ( 'detailed design', #5, 'design' ) ;
#302 = FACE_OUTER_BOUND ( 'NONE', #292, .T. ) ;
#303 = PERSON_AND_ORGANIZATION_ROLE ( 'creator' ) ;
ENDSEC;
END-ISO-10303-21;
