ISO-10303-21;
HEADER;
FILE_DESCRIPTION (( 'STEP AP203' ),
    '1' );
FILE_NAME ('327007.step',
    '2021-12-01T10:40:12',
    ( '' ),
    ( '' ),
    'SwSTEP 2.0',
    'SolidWorks 2019',
    '' );
FILE_SCHEMA (( 'CONFIG_CONTROL_DESIGN' ));
ENDSEC;

DATA;
#1 = COORDINATED_UNIVERSAL_TIME_OFFSET ( 1, 0, .AHEAD. ) ;
#2 = CLOSED_SHELL ( 'NONE', ( #213, #170, #129, #49 ) ) ;
#3 = ORIENTED_EDGE ( 'NONE', *, *, #243, .F. ) ;
#4 = PERSON_AND_ORGANIZATION_ROLE ( 'creator' ) ;
#5 = EDGE_LOOP ( 'NONE', ( #74 ) ) ;
#6 = LOCAL_TIME ( 11, 40, 12.00000000000000000, #255 ) ;
#7 = CC_DESIGN_PERSON_AND_ORGANIZATION_ASSIGNMENT ( #137, #302, ( #161 ) ) ;
#8 = DIRECTION ( 'NONE',  ( 0.0000000000000000000, -1.000000000000000000, 0.0000000000000000000 ) ) ;
#9 = DIRECTION ( 'NONE',  ( 3.491481338843133355E-15, -1.224646799147353207E-16, 1.000000000000000000 ) ) ;
#10 = DIRECTION ( 'NONE',  ( -3.491481338843133355E-15, 1.224646799147353207E-16, -1.000000000000000000 ) ) ;
#11 = LOCAL_TIME ( 11, 40, 12.00000000000000000, #25 ) ;
#12 = DIRECTION ( 'NONE',  ( 4.275831445896958607E-31, 1.000000000000000000, 1.224646799147353454E-16 ) ) ;
#13 = DIRECTION ( 'NONE',  ( 4.275831445896958607E-31, 1.000000000000000000, 1.224646799147353207E-16 ) ) ;
#14 = DIRECTION ( 'NONE',  ( 0.0000000000000000000, 1.000000000000000000, 0.0000000000000000000 ) ) ;
#15 = FACE_OUTER_BOUND ( 'NONE', #110, .T. ) ;
#16 = ADVANCED_FACE ( 'NONE', ( #68, #54 ), #67, .T. ) ;
#17 = AXIS2_PLACEMENT_3D ( 'NONE', #57, #76, #59 ) ;
#18 = DIRECTION ( 'NONE',  ( 0.0000000000000000000, 1.000000000000000000, 0.0000000000000000000 ) ) ;
#19 = EDGE_LOOP ( 'NONE', ( #272 ) ) ;
#20 = DIRECTION ( 'NONE',  ( -3.491481338843133355E-15, 1.224646799147353207E-16, -1.000000000000000000 ) ) ;
#21 = CC_DESIGN_PERSON_AND_ORGANIZATION_ASSIGNMENT ( #28, #4, ( #180 ) ) ;
#22 = PRODUCT ( '327007', '327007', '', ( #48 ) ) ;
#23 = CIRCLE ( 'NONE', #293, 0.5199999999999994627 ) ;
#24 = APPROVAL_STATUS ( 'not_yet_approved' ) ;
#25 = COORDINATED_UNIVERSAL_TIME_OFFSET ( 1, 0, .AHEAD. ) ;
#26 = CONICAL_SURFACE ( 'NONE', #225, 1.499999999999997558, 0.1745329251994257591 ) ;
#27 = ORIENTED_EDGE ( 'NONE', *, *, #243, .T. ) ;
#28 = PERSON_AND_ORGANIZATION ( #282, #62 ) ;
#29 = DIRECTION ( 'NONE',  ( 3.491481338843133355E-15, -1.224646799147353207E-16, 1.000000000000000000 ) ) ;
#30 = CONICAL_SURFACE ( 'NONE', #242, 0.5199999999999994627, 0.5235987755982924874 ) ;
#31 = PLANE ( 'NONE',  #247 ) ;
#32 = DIRECTION ( 'NONE',  ( 0.0000000000000000000, 1.000000000000000000, 0.0000000000000000000 ) ) ;
#33 = FACE_OUTER_BOUND ( 'NONE', #157, .T. ) ;
#34 = AXIS2_PLACEMENT_3D ( 'NONE', #145, #261, #237 ) ;
#35 = CARTESIAN_POINT ( 'NONE',  ( 1.326762908760390423E-13, 8.998558695971103225E-33, 38.00000000000000000 ) ) ;
#36 = CARTESIAN_POINT ( 'NONE',  ( 0.0000000000000000000, 0.0000000000000000000, 0.0000000000000000000 ) ) ;
#37 = EDGE_CURVE ( 'NONE', #271, #271, #288, .T. ) ;
#38 = VERTEX_POINT ( 'NONE', #126 ) ;
#39 = DIRECTION ( 'NONE',  ( -3.491481338843133355E-15, 1.224646799147353207E-16, -1.000000000000000000 ) ) ;
#40 = CIRCLE ( 'NONE', #164, 0.5200000000000000178 ) ;
#41 = EDGE_CURVE ( 'NONE', #266, #266, #66, .T. ) ;
#42 = PRODUCT_DEFINITION_SHAPE ( 'NONE', 'NONE',  #161 ) ;
#43 = EDGE_LOOP ( 'NONE', ( #27 ) ) ;
#44 = APPLICATION_PROTOCOL_DEFINITION ( 'international standard', 'config_control_design', 1994, #204 ) ;
#45 = ORIENTED_EDGE ( 'NONE', *, *, #234, .T. ) ;
#46 = PERSON_AND_ORGANIZATION ( #282, #62 ) ;
#47 = CC_DESIGN_APPROVAL ( #222, ( #136 ) ) ;
#48 = MECHANICAL_CONTEXT ( 'NONE', #204, 'mechanical' ) ;
#49 = ADVANCED_FACE ( 'NONE', ( #33 ), #259, .T. ) ;
#50 = APPROVAL_ROLE ( '' ) ;
#51 = EDGE_LOOP ( 'NONE', ( #258 ) ) ;
#52 = AXIS2_PLACEMENT_3D ( 'NONE', #100, #122, #32 ) ;
#53 = PERSON_AND_ORGANIZATION_ROLE ( 'design_owner' ) ;
#54 = FACE_BOUND ( 'NONE', #250, .T. ) ;
#55 = EDGE_CURVE ( 'NONE', #203, #203, #229, .T. ) ;
#56 = DIRECTION ( 'NONE',  ( -4.275831445896958607E-31, -1.000000000000000000, -1.224646799147353207E-16 ) ) ;
#57 = CARTESIAN_POINT ( 'NONE',  ( 5.951144055233101893E-14, -2.087380344103697370E-15, 17.04475401035639948 ) ) ;
#58 = AXIS2_PLACEMENT_3D ( 'NONE', #103, #144, #121 ) ;
#59 = DIRECTION ( 'NONE',  ( 0.0000000000000000000, 1.000000000000000000, 0.0000000000000000000 ) ) ;
#60 = CYLINDRICAL_SURFACE ( 'NONE', #232, 1.500000000000000444 ) ;
#61 = DIRECTION ( 'NONE',  ( 3.491481338843133355E-15, -1.224646799147353207E-16, 1.000000000000000000 ) ) ;
#62 = ORGANIZATION ( 'UNSPECIFIED', 'UNSPECIFIED', '' ) ;
#63 = CARTESIAN_POINT ( 'NONE',  ( 3.840629472727446691E-14, 0.4649999999999988587, 11.00000000000000000 ) ) ;
#64 = VERTEX_POINT ( 'NONE', #295 ) ;
#65 = CARTESIAN_POINT ( 'NONE',  ( 8.728703347107833388E-16, 0.5199999999999994627, 0.2500000000000000000 ) ) ;
#66 = CIRCLE ( 'NONE', #278, 0.5200000000000000178 ) ;
#67 = CONICAL_SURFACE ( 'NONE', #220, 1.200000000000003286, 0.7853981633974453924 ) ;
#68 = FACE_OUTER_BOUND ( 'NONE', #130, .T. ) ;
#69 = APPROVAL_STATUS ( 'not_yet_approved' ) ;
#70 = AXIS2_PLACEMENT_3D ( 'NONE', #246, #151, #206 ) ;
#71 = APPROVAL_STATUS ( 'not_yet_approved' ) ;
#72 = ADVANCED_FACE ( 'NONE', ( #215, #101 ), #26, .T. ) ;
#73 =( GEOMETRIC_REPRESENTATION_CONTEXT ( 3 ) GLOBAL_UNCERTAINTY_ASSIGNED_CONTEXT ( ( #301 ) ) GLOBAL_UNIT_ASSIGNED_CONTEXT ( ( #91, #109, #244 ) ) REPRESENTATION_CONTEXT ( 'NONE', 'WORKASPACE' ) );
#74 = ORIENTED_EDGE ( 'NONE', *, *, #234, .F. ) ;
#75 = DIRECTION ( 'NONE',  ( -3.491481338843133355E-15, 1.224646799147353207E-16, -1.000000000000000000 ) ) ;
#76 = DIRECTION ( 'NONE',  ( -3.491481338843133355E-15, 1.224646799147353207E-16, -1.000000000000000000 ) ) ;
#77 = ADVANCED_FACE ( 'NONE', ( #172, #143 ), #90, .T. ) ;
#78 = AXIS2_PLACEMENT_3D ( 'NONE', #249, #201, #14 ) ;
#79 = DIRECTION ( 'NONE',  ( 0.0000000000000000000, 1.000000000000000000, 0.0000000000000000000 ) ) ;
#80 = FACE_OUTER_BOUND ( 'NONE', #192, .T. ) ;
#81 = DIRECTION ( 'NONE',  ( 0.0000000000000000000, 1.000000000000000000, 0.0000000000000000000 ) ) ;
#82 = APPROVAL ( #24, 'UNSPECIFIED' ) ;
#83 = CC_DESIGN_SECURITY_CLASSIFICATION ( #136, ( #180 ) ) ;
#84 = CARTESIAN_POINT ( 'NONE',  ( 5.951144055233101893E-14, 1.499999999999995559, 17.04475401035639948 ) ) ;
#85 = VERTEX_POINT ( 'NONE', #268 ) ;
#86 = CC_DESIGN_DATE_AND_TIME_ASSIGNMENT ( #113, #276, ( #161 ) ) ;
#87 = CARTESIAN_POINT ( 'NONE',  ( 1.745740669421566678E-14, 0.5199999999999994627, 5.000000000000000000 ) ) ;
#88 = EDGE_LOOP ( 'NONE', ( #257 ) ) ;
#89 = VERTEX_POINT ( 'NONE', #245 ) ;
#90 = CONICAL_SURFACE ( 'NONE', #52, 0.4649999999999994138, 0.5235987755982951519 ) ;
#91 =( LENGTH_UNIT ( ) NAMED_UNIT ( * ) SI_UNIT ( .MILLI., .METRE. ) );
#92 = PERSON_AND_ORGANIZATION ( #282, #62 ) ;
#93 = PERSON_AND_ORGANIZATION ( #282, #62 ) ;
#94 = DATE_TIME_ROLE ( 'classification_date' ) ;
#95 = ORIENTED_EDGE ( 'NONE', *, *, #37, .F. ) ;
#96 = DATE_AND_TIME ( #184, #99 ) ;
#97 = ORIENTED_EDGE ( 'NONE', *, *, #227, .F. ) ;
#98 = EDGE_LOOP ( 'NONE', ( #248 ) ) ;
#99 = LOCAL_TIME ( 11, 40, 12.00000000000000000, #160 ) ;
#100 = CARTESIAN_POINT ( 'NONE',  ( 1.779001496320619541E-14, -6.239897271996508328E-16, 5.095262794416290042 ) ) ;
#101 = FACE_OUTER_BOUND ( 'NONE', #98, .T. ) ;
#102 = DIRECTION ( 'NONE',  ( 3.491481338843133355E-15, -1.224646799147353207E-16, 1.000000000000000000 ) ) ;
#103 = CARTESIAN_POINT ( 'NONE',  ( 3.840629472727446691E-14, -1.301042606982605321E-15, 11.00000000000000000 ) ) ;
#104 = FACE_BOUND ( 'NONE', #284, .T. ) ;
#105 = DIRECTION ( 'NONE',  ( 3.703711431513919077E-31, 1.000000000000000000, 1.042502088928370767E-16 ) ) ;
#106 = APPROVAL_PERSON_ORGANIZATION ( #93, #222, #50 ) ;
#107 = CARTESIAN_POINT ( 'NONE',  ( 3.961887347097083078E-14, 0.4953844939755807086, 11.34729635533384773 ) ) ;
#108 = CARTESIAN_POINT ( 'NONE',  ( 1.779001496320619541E-14, -6.239897271996508328E-16, 5.095262794416290042 ) ) ;
#109 =( NAMED_UNIT ( * ) PLANE_ANGLE_UNIT ( ) SI_UNIT ( $, .RADIAN. ) );
#110 = EDGE_LOOP ( 'NONE', ( #140 ) ) ;
#111 = DIRECTION ( 'NONE',  ( 4.275831445896958607E-31, 1.000000000000000000, 1.224646799147353207E-16 ) ) ;
#112 = ADVANCED_FACE ( 'NONE', ( #195, #166 ), #187, .F. ) ;
#113 = DATE_AND_TIME ( #115, #11 ) ;
#114 = DATE_AND_TIME ( #185, #270 ) ;
#115 = CALENDAR_DATE ( 2021, 1, 12 ) ;
#116 = ORIENTED_EDGE ( 'NONE', *, *, #227, .T. ) ;
#117 = APPROVAL_DATE_TIME ( #189, #222 ) ;
#118 = ORIENTED_EDGE ( 'NONE', *, *, #267, .F. ) ;
#119 = DIRECTION ( 'NONE',  ( 0.0000000000000000000, 1.000000000000000000, 0.0000000000000000000 ) ) ;
#120 = PLANE ( 'NONE',  #176 ) ;
#121 = DIRECTION ( 'NONE',  ( 4.275831445896958607E-31, 1.000000000000000000, 1.224646799147353207E-16 ) ) ;
#122 = DIRECTION ( 'NONE',  ( -3.491481338843133355E-15, 1.224646799147353207E-16, -1.000000000000000000 ) ) ;
#123 = CIRCLE ( 'NONE', #238, 0.3756624327025950838 ) ;
#124 = CARTESIAN_POINT ( 'NONE',  ( 1.745740669421566678E-14, 3.899375434920821296E-33, 5.000000000000000000 ) ) ;
#125 = CARTESIAN_POINT ( 'NONE',  ( 8.728703347107831416E-16, -3.061616997868382402E-17, 0.2499999999999999445 ) ) ;
#126 = CARTESIAN_POINT ( 'NONE',  ( -1.892735826383161575E-31, 0.3756624327025950838, -5.421010862427522170E-17 ) ) ;
#127 = AXIS2_PLACEMENT_3D ( 'NONE', #36, #228, #111 ) ;
#128 = PLANE ( 'NONE',  #70 ) ;
#129 = ADVANCED_FACE ( 'NONE', ( #197, #175 ), #217, .T. ) ;
#130 = EDGE_LOOP ( 'NONE', ( #3 ) ) ;
#131 = CARTESIAN_POINT ( 'NONE',  ( 1.326762908760390423E-13, -4.653657836759941941E-15, 38.00000000000000000 ) ) ;
#132 = EDGE_LOOP ( 'NONE', ( #212 ) ) ;
#133 = VERTEX_POINT ( 'NONE', #65 ) ;
#134 = ORIENTED_EDGE ( 'NONE', *, *, #267, .T. ) ;
#135 = APPROVAL ( #71, 'UNSPECIFIED' ) ;
#136 = SECURITY_CLASSIFICATION ( '', '', #191 ) ;
#137 = PERSON_AND_ORGANIZATION ( #282, #62 ) ;
#138 = CALENDAR_DATE ( 2021, 1, 12 ) ;
#139 = ADVANCED_FACE ( 'NONE', ( #196 ), #31, .F. ) ;
#140 = ORIENTED_EDGE ( 'NONE', *, *, #289, .F. ) ;
#141 = CC_DESIGN_APPROVAL ( #82, ( #161 ) ) ;
#142 = PERSON_AND_ORGANIZATION_ROLE ( 'design_supplier' ) ;
#143 = FACE_BOUND ( 'NONE', #132, .T. ) ;
#144 = DIRECTION ( 'NONE',  ( -3.491481338843133355E-15, 1.224646799147353207E-16, -1.000000000000000000 ) ) ;
#145 = CARTESIAN_POINT ( 'NONE',  ( 3.840629472727446691E-14, -1.347111479062088405E-15, 11.00000000000000000 ) ) ;
#146 = CARTESIAN_POINT ( 'NONE',  ( 0.0000000000000000000, 0.0000000000000000000, 0.0000000000000000000 ) ) ;
#147 = ADVANCED_FACE ( 'NONE', ( #290 ), #120, .F. ) ;
#148 = DIRECTION ( 'NONE',  ( -3.703711431513919077E-31, -1.000000000000000000, -1.042502088928370767E-16 ) ) ;
#149 = APPROVAL_PERSON_ORGANIZATION ( #208, #135, #300 ) ;
#150 = VERTEX_POINT ( 'NONE', #294 ) ;
#151 = DIRECTION ( 'NONE',  ( 3.491481338843133355E-15, -1.224646799147353207E-16, 1.000000000000000000 ) ) ;
#152 = DIRECTION ( 'NONE',  ( 4.275831445896958607E-31, 1.000000000000000000, 1.224646799147353207E-16 ) ) ;
#153 = AXIS2_PLACEMENT_3D ( 'NONE', #131, #226, #223 ) ;
#154 = ORIENTED_EDGE ( 'NONE', *, *, #55, .T. ) ;
#155 = FACE_OUTER_BOUND ( 'NONE', #281, .T. ) ;
#156 = ADVANCED_FACE ( 'NONE', ( #168, #260 ), #60, .T. ) ;
#157 = EDGE_LOOP ( 'NONE', ( #269 ) ) ;
#158 = APPROVAL_DATE_TIME ( #114, #82 ) ;
#159 = LOCAL_TIME ( 11, 40, 12.00000000000000000, #1 ) ;
#160 = COORDINATED_UNIVERSAL_TIME_OFFSET ( 1, 0, .AHEAD. ) ;
#161 = PRODUCT_DEFINITION ( 'UNKNOWN', '', #180, #207 ) ;
#162 = CARTESIAN_POINT ( 'NONE',  ( 0.0000000000000000000, 0.0000000000000000000, 0.0000000000000000000 ) ) ;
#163 = EDGE_LOOP ( 'NONE', ( #95 ) ) ;
#164 = AXIS2_PLACEMENT_3D ( 'NONE', #241, #200, #81 ) ;
#165 = EDGE_LOOP ( 'NONE', ( #116 ) ) ;
#166 = FACE_OUTER_BOUND ( 'NONE', #233, .T. ) ;
#167 = MANIFOLD_SOLID_BREP ( 'Corps-Déplacer/Copier1[1]', #171 ) ;
#168 = FACE_OUTER_BOUND ( 'NONE', #163, .T. ) ;
#169 = AXIS2_PLACEMENT_3D ( 'NONE', #108, #264, #292 ) ;
#170 = ADVANCED_FACE ( 'NONE', ( #104, #80 ), #30, .T. ) ;
#171 = CLOSED_SHELL ( 'NONE', ( #139, #77, #188, #112, #72, #156, #16, #147 ) ) ;
#172 = FACE_OUTER_BOUND ( 'NONE', #19, .T. ) ;
#173 = CARTESIAN_POINT ( 'NONE',  ( 8.728703347107831416E-16, -3.061616997868382402E-17, 0.2499999999999999445 ) ) ;
#174 = ADVANCED_BREP_SHAPE_REPRESENTATION ( '327007', ( #167, #263, #211 ), #73 ) ;
#175 = FACE_OUTER_BOUND ( 'NONE', #179, .T. ) ;
#176 = AXIS2_PLACEMENT_3D ( 'NONE', #35, #286, #287 ) ;
#177 = CARTESIAN_POINT ( 'NONE',  ( -3.499005069175067843E-31, 1.227285768505758545E-32, -1.002154882011893235E-16 ) ) ;
#178 = VERTEX_POINT ( 'NONE', #107 ) ;
#179 = EDGE_LOOP ( 'NONE', ( #296 ) ) ;
#180 = PRODUCT_DEFINITION_FORMATION_WITH_SPECIFIED_SOURCE ( 'ANY', '', #22, .NOT_KNOWN. ) ;
#181 = EDGE_CURVE ( 'NONE', #64, #64, #40, .T. ) ;
#182 = CARTESIAN_POINT ( 'NONE',  ( 3.961887347097083078E-14, -1.389643016053602315E-15, 11.34729635533384773 ) ) ;
#183 = ORIENTED_EDGE ( 'NONE', *, *, #55, .F. ) ;
#184 = CALENDAR_DATE ( 2021, 1, 12 ) ;
#185 = CALENDAR_DATE ( 2021, 1, 12 ) ;
#186 = PERSON_AND_ORGANIZATION ( #282, #62 ) ;
#187 = TOROIDAL_SURFACE ( 'NONE', #58, 2.465000000000000302, 2.000000000000000000 ) ;
#188 = ADVANCED_FACE ( 'NONE', ( #15, #155 ), #224, .T. ) ;
#189 = DATE_AND_TIME ( #138, #6 ) ;
#190 = EDGE_LOOP ( 'NONE', ( #183 ) ) ;
#191 = SECURITY_CLASSIFICATION_LEVEL ( 'unclassified' ) ;
#192 = EDGE_LOOP ( 'NONE', ( #45 ) ) ;
#193 = ORIENTED_EDGE ( 'NONE', *, *, #209, .T. ) ;
#194 = CIRCLE ( 'NONE', #169, 0.4649999999999994138 ) ;
#195 = FACE_OUTER_BOUND ( 'NONE', #190, .T. ) ;
#196 = FACE_OUTER_BOUND ( 'NONE', #51, .T. ) ;
#197 = FACE_OUTER_BOUND ( 'NONE', #5, .T. ) ;
#198 = AXIS2_PLACEMENT_3D ( 'NONE', #182, #299, #18 ) ;
#199 = CARTESIAN_POINT ( 'NONE',  ( 1.745740669421566678E-14, 3.899375434920821296E-33, 5.000000000000000000 ) ) ;
#200 = DIRECTION ( 'NONE',  ( -3.491481338843133355E-15, 1.224646799147353207E-16, -1.000000000000000000 ) ) ;
#201 = DIRECTION ( 'NONE',  ( -3.491481338843133355E-15, 1.224646799147353207E-16, -1.000000000000000000 ) ) ;
#202 = AXIS2_PLACEMENT_3D ( 'NONE', #221, #10, #12 ) ;
#203 = VERTEX_POINT ( 'NONE', #63 ) ;
#204 = APPLICATION_CONTEXT ( 'configuration controlled 3d designs of mechanical parts and assemblies' ) ;
#205 = FACE_OUTER_BOUND ( 'NONE', #165, .T. ) ;
#206 = DIRECTION ( 'NONE',  ( -4.275831445896958607E-31, -1.000000000000000000, -1.224646799147353207E-16 ) ) ;
#207 = DESIGN_CONTEXT ( 'detailed design', #274, 'design' ) ;
#208 = PERSON_AND_ORGANIZATION ( #282, #62 ) ;
#209 = EDGE_CURVE ( 'NONE', #89, #89, #253, .T. ) ;
#210 = PERSON_AND_ORGANIZATION_ROLE ( 'classification_officer' ) ;
#211 = AXIS2_PLACEMENT_3D ( 'NONE', #162, #279, #256 ) ;
#212 = ORIENTED_EDGE ( 'NONE', *, *, #289, .T. ) ;
#213 = ADVANCED_FACE ( 'NONE', ( #205 ), #128, .F. ) ;
#214 = COORDINATED_UNIVERSAL_TIME_OFFSET ( 1, 0, .AHEAD. ) ;
#215 = FACE_BOUND ( 'NONE', #236, .T. ) ;
#216 = DIRECTION ( 'NONE',  ( -3.491481338843133355E-15, 1.224646799147353207E-16, -1.000000000000000000 ) ) ;
#217 = CYLINDRICAL_SURFACE ( 'NONE', #202, 0.5199999999999996847 ) ;
#218 = CC_DESIGN_PERSON_AND_ORGANIZATION_ASSIGNMENT ( #186, #53, ( #22 ) ) ;
#219 = DIRECTION ( 'NONE',  ( -4.275831445896958607E-31, -1.000000000000000000, -1.224646799147353207E-16 ) ) ;
#220 = AXIS2_PLACEMENT_3D ( 'NONE', #285, #75, #119 ) ;
#221 = CARTESIAN_POINT ( 'NONE',  ( 0.0000000000000000000, 0.0000000000000000000, 0.0000000000000000000 ) ) ;
#222 = APPROVAL ( #69, 'UNSPECIFIED' ) ;
#223 = DIRECTION ( 'NONE',  ( 0.0000000000000000000, 1.000000000000000000, 0.0000000000000000000 ) ) ;
#224 = CYLINDRICAL_SURFACE ( 'NONE', #127, 0.4649999999999998024 ) ;
#225 = AXIS2_PLACEMENT_3D ( 'NONE', #239, #29, #8 ) ;
#226 = DIRECTION ( 'NONE',  ( -3.491481338843133355E-15, 1.224646799147353207E-16, -1.000000000000000000 ) ) ;
#227 = EDGE_CURVE ( 'NONE', #38, #38, #123, .T. ) ;
#228 = DIRECTION ( 'NONE',  ( -3.491481338843133355E-15, 1.224646799147353207E-16, -1.000000000000000000 ) ) ;
#229 = CIRCLE ( 'NONE', #34, 0.4650000000000001910 ) ;
#230 = CALENDAR_DATE ( 2021, 1, 12 ) ;
#231 = APPROVAL_DATE_TIME ( #96, #135 ) ;
#232 = AXIS2_PLACEMENT_3D ( 'NONE', #146, #240, #13 ) ;
#233 = EDGE_LOOP ( 'NONE', ( #134 ) ) ;
#234 = EDGE_CURVE ( 'NONE', #133, #133, #23, .T. ) ;
#235 = APPLICATION_PROTOCOL_DEFINITION ( 'international standard', 'config_control_design', 1994, #274 ) ;
#236 = EDGE_LOOP ( 'NONE', ( #118 ) ) ;
#237 = DIRECTION ( 'NONE',  ( 0.0000000000000000000, 1.000000000000000000, 0.0000000000000000000 ) ) ;
#238 = AXIS2_PLACEMENT_3D ( 'NONE', #177, #39, #152 ) ;
#239 = CARTESIAN_POINT ( 'NONE',  ( 5.951144055233101893E-14, -2.087380344103697370E-15, 17.04475401035639948 ) ) ;
#240 = DIRECTION ( 'NONE',  ( -3.491481338843133355E-15, 1.224646799147353207E-16, -1.000000000000000000 ) ) ;
#241 = CARTESIAN_POINT ( 'NONE',  ( 1.745740669421566678E-14, -6.123233995736766282E-16, 5.000000000000000000 ) ) ;
#242 = AXIS2_PLACEMENT_3D ( 'NONE', #173, #61, #148 ) ;
#243 = EDGE_CURVE ( 'NONE', #150, #150, #303, .T. ) ;
#244 =( NAMED_UNIT ( * ) SI_UNIT ( $, .STERADIAN. ) SOLID_ANGLE_UNIT ( ) );
#245 = CARTESIAN_POINT ( 'NONE',  ( 1.326762908760390423E-13, 1.199999999999998845, 38.00000000000000000 ) ) ;
#246 = CARTESIAN_POINT ( 'NONE',  ( -1.749502534587533921E-31, 6.136428842528792726E-33, -5.010774410059466173E-17 ) ) ;
#247 = AXIS2_PLACEMENT_3D ( 'NONE', #199, #102, #56 ) ;
#248 = ORIENTED_EDGE ( 'NONE', *, *, #37, .T. ) ;
#249 = CARTESIAN_POINT ( 'NONE',  ( 1.316288464743861212E-13, -4.616918432785521081E-15, 37.69999999999999574 ) ) ;
#250 = EDGE_LOOP ( 'NONE', ( #193 ) ) ;
#251 = APPROVAL_ROLE ( '' ) ;
#252 = PRODUCT_RELATED_PRODUCT_CATEGORY ( 'detail', '', ( #22 ) ) ;
#253 = CIRCLE ( 'NONE', #153, 1.200000000000003286 ) ;
#254 = PERSON_AND_ORGANIZATION ( #282, #62 ) ;
#255 = COORDINATED_UNIVERSAL_TIME_OFFSET ( 1, 0, .AHEAD. ) ;
#256 = DIRECTION ( 'NONE',  ( 1.000000000000000000, 0.0000000000000000000, 0.0000000000000000000 ) ) ;
#257 = ORIENTED_EDGE ( 'NONE', *, *, #209, .F. ) ;
#258 = ORIENTED_EDGE ( 'NONE', *, *, #181, .T. ) ;
#259 = PLANE ( 'NONE',  #277 ) ;
#260 = FACE_OUTER_BOUND ( 'NONE', #43, .T. ) ;
#261 = DIRECTION ( 'NONE',  ( -3.491481338843133355E-15, 1.224646799147353207E-16, -1.000000000000000000 ) ) ;
#262 = CC_DESIGN_PERSON_AND_ORGANIZATION_ASSIGNMENT ( #254, #210, ( #136 ) ) ;
#263 = MANIFOLD_SOLID_BREP ( 'Corps-Déplacer/Copier1[2]', #2 ) ;
#264 = DIRECTION ( 'NONE',  ( -3.491481338843133355E-15, 1.224646799147353207E-16, -1.000000000000000000 ) ) ;
#265 = CC_DESIGN_APPROVAL ( #135, ( #180 ) ) ;
#266 = VERTEX_POINT ( 'NONE', #87 ) ;
#267 = EDGE_CURVE ( 'NONE', #178, #178, #297, .T. ) ;
#268 = CARTESIAN_POINT ( 'NONE',  ( 1.779001496320619541E-14, 0.4649999999999988032, 5.095262794416290042 ) ) ;
#269 = ORIENTED_EDGE ( 'NONE', *, *, #41, .F. ) ;
#270 = LOCAL_TIME ( 11, 40, 12.00000000000000000, #214 ) ;
#271 = VERTEX_POINT ( 'NONE', #84 ) ;
#272 = ORIENTED_EDGE ( 'NONE', *, *, #181, .F. ) ;
#273 = DATE_AND_TIME ( #230, #159 ) ;
#274 = APPLICATION_CONTEXT ( 'configuration controlled 3d designs of mechanical parts and assemblies' ) ;
#275 = CC_DESIGN_DATE_AND_TIME_ASSIGNMENT ( #273, #94, ( #136 ) ) ;
#276 = DATE_TIME_ROLE ( 'creation_date' ) ;
#277 = AXIS2_PLACEMENT_3D ( 'NONE', #124, #9, #219 ) ;
#278 = AXIS2_PLACEMENT_3D ( 'NONE', #291, #216, #79 ) ;
#279 = DIRECTION ( 'NONE',  ( 0.0000000000000000000, 0.0000000000000000000, 1.000000000000000000 ) ) ;
#280 = SHAPE_DEFINITION_REPRESENTATION ( #42, #174 ) ;
#281 = EDGE_LOOP ( 'NONE', ( #154 ) ) ;
#282 = PERSON ( 'UNSPECIFIED', 'UNSPECIFIED', 'UNSPECIFIED', ('UNSPECIFIED'), ('UNSPECIFIED'), ('UNSPECIFIED') ) ;
#283 = APPROVAL_PERSON_ORGANIZATION ( #92, #82, #251 ) ;
#284 = EDGE_LOOP ( 'NONE', ( #97 ) ) ;
#285 = CARTESIAN_POINT ( 'NONE',  ( 1.326762908760390423E-13, -4.653657836759941941E-15, 38.00000000000000000 ) ) ;
#286 = DIRECTION ( 'NONE',  ( -3.491481338843133355E-15, 1.224646799147353207E-16, -1.000000000000000000 ) ) ;
#287 = DIRECTION ( 'NONE',  ( 4.275831445896958607E-31, 1.000000000000000000, 1.224646799147353207E-16 ) ) ;
#288 = CIRCLE ( 'NONE', #17, 1.499999999999997558 ) ;
#289 = EDGE_CURVE ( 'NONE', #85, #85, #194, .T. ) ;
#290 = FACE_OUTER_BOUND ( 'NONE', #88, .T. ) ;
#291 = CARTESIAN_POINT ( 'NONE',  ( 1.745740669421566678E-14, -6.123233995736766282E-16, 5.000000000000000000 ) ) ;
#292 = DIRECTION ( 'NONE',  ( 0.0000000000000000000, 1.000000000000000000, 0.0000000000000000000 ) ) ;
#293 = AXIS2_PLACEMENT_3D ( 'NONE', #125, #20, #105 ) ;
#294 = CARTESIAN_POINT ( 'NONE',  ( 1.316288464743861212E-13, 1.499999999999998668, 37.69999999999999574 ) ) ;
#295 = CARTESIAN_POINT ( 'NONE',  ( 1.745740669421566678E-14, 0.5199999999999994627, 5.000000000000000000 ) ) ;
#296 = ORIENTED_EDGE ( 'NONE', *, *, #41, .T. ) ;
#297 = CIRCLE ( 'NONE', #198, 0.4953844939755820964 ) ;
#298 = CC_DESIGN_PERSON_AND_ORGANIZATION_ASSIGNMENT ( #46, #142, ( #180 ) ) ;
#299 = DIRECTION ( 'NONE',  ( -3.491481338843133355E-15, 1.224646799147353207E-16, -1.000000000000000000 ) ) ;
#300 = APPROVAL_ROLE ( '' ) ;
#301 = UNCERTAINTY_MEASURE_WITH_UNIT (LENGTH_MEASURE( 1.000000000000000082E-05 ), #91, 'distance_accuracy_value', 'NONE');
#302 = PERSON_AND_ORGANIZATION_ROLE ( 'creator' ) ;
#303 = CIRCLE ( 'NONE', #78, 1.500000000000003331 ) ;
ENDSEC;
END-ISO-10303-21;
