ISO-10303-21;
HEADER;
FILE_DESCRIPTION (( 'STEP AP203' ),
    '1' );
FILE_NAME ('327006.step',
    '2021-12-01T10:40:12',
    ( '' ),
    ( '' ),
    'SwSTEP 2.0',
    'SolidWorks 2019',
    '' );
FILE_SCHEMA (( 'CONFIG_CONTROL_DESIGN' ));
ENDSEC;

DATA;
#1 = AXIS2_PLACEMENT_3D ( 'NONE', #220, #252, #39 ) ;
#2 = DIRECTION ( 'NONE',  ( 0.0000000000000000000, 1.000000000000000000, 0.0000000000000000000 ) ) ;
#3 = ORIENTED_EDGE ( 'NONE', *, *, #201, .F. ) ;
#4 = CARTESIAN_POINT ( 'NONE',  ( 1.745740669421566678E-14, 3.524435489255356210E-33, 5.000000000000000000 ) ) ;
#5 = ADVANCED_FACE ( 'NONE', ( #113, #58 ), #93, .T. ) ;
#6 = DIRECTION ( 'NONE',  ( -3.491481338843133355E-15, 1.224646799147353207E-16, -1.000000000000000000 ) ) ;
#7 = CALENDAR_DATE ( 2021, 1, 12 ) ;
#8 = EDGE_LOOP ( 'NONE', ( #86 ) ) ;
#9 = EDGE_CURVE ( 'NONE', #193, #193, #223, .T. ) ;
#10 = PERSON_AND_ORGANIZATION_ROLE ( 'creator' ) ;
#11 = DIRECTION ( 'NONE',  ( 0.0000000000000000000, -1.000000000000000000, 0.0000000000000000000 ) ) ;
#12 = CC_DESIGN_SECURITY_CLASSIFICATION ( #234, ( #18 ) ) ;
#13 =( LENGTH_UNIT ( ) NAMED_UNIT ( * ) SI_UNIT ( .MILLI., .METRE. ) );
#14 = DIRECTION ( 'NONE',  ( -3.491481338843133355E-15, 1.224646799147353207E-16, -1.000000000000000000 ) ) ;
#15 = EDGE_CURVE ( 'NONE', #190, #190, #135, .T. ) ;
#16 = FACE_OUTER_BOUND ( 'NONE', #222, .T. ) ;
#17 = ORIENTED_EDGE ( 'NONE', *, *, #27, .F. ) ;
#18 = PRODUCT_DEFINITION_FORMATION_WITH_SPECIFIED_SOURCE ( 'ANY', '', #120, .NOT_KNOWN. ) ;
#19 = CARTESIAN_POINT ( 'NONE',  ( 0.0000000000000000000, 0.0000000000000000000, 0.0000000000000000000 ) ) ;
#20 = CARTESIAN_POINT ( 'NONE',  ( 5.691101207231110669E-14, 1.499999999999995559, 16.29996169223920077 ) ) ;
#21 = FACE_OUTER_BOUND ( 'NONE', #239, .T. ) ;
#22 = AXIS2_PLACEMENT_3D ( 'NONE', #281, #240, #277 ) ;
#23 = APPROVAL ( #195, 'UNSPECIFIED' ) ;
#24 = CARTESIAN_POINT ( 'NONE',  ( 1.775977784784342036E-14, -6.229291519609259858E-16, 5.086602540378446058 ) ) ;
#25 = DIRECTION ( 'NONE',  ( 0.0000000000000000000, 1.000000000000000000, 0.0000000000000000000 ) ) ;
#26 = ORIENTED_EDGE ( 'NONE', *, *, #269, .F. ) ;
#27 = EDGE_CURVE ( 'NONE', #163, #163, #274, .T. ) ;
#28 = APPROVAL_PERSON_ORGANIZATION ( #288, #83, #182 ) ;
#29 = PERSON_AND_ORGANIZATION ( #137, #205 ) ;
#30 = DESIGN_CONTEXT ( 'detailed design', #217, 'design' ) ;
#31 = EDGE_LOOP ( 'NONE', ( #127 ) ) ;
#32 = ORIENTED_EDGE ( 'NONE', *, *, #165, .F. ) ;
#33 = CALENDAR_DATE ( 2021, 1, 12 ) ;
#34 = AXIS2_PLACEMENT_3D ( 'NONE', #154, #183, #293 ) ;
#35 = FACE_OUTER_BOUND ( 'NONE', #181, .T. ) ;
#36 = PLANE ( 'NONE',  #209 ) ;
#37 = DIRECTION ( 'NONE',  ( -3.491481338843133355E-15, 1.224646799147353207E-16, -1.000000000000000000 ) ) ;
#38 = ADVANCED_FACE ( 'NONE', ( #108, #271 ), #197, .T. ) ;
#39 = DIRECTION ( 'NONE',  ( 0.0000000000000000000, 1.000000000000000000, 0.0000000000000000000 ) ) ;
#40 = AXIS2_PLACEMENT_3D ( 'NONE', #55, #299, #53 ) ;
#41 = FACE_OUTER_BOUND ( 'NONE', #146, .T. ) ;
#42 = CARTESIAN_POINT ( 'NONE',  ( 3.491481338843133355E-14, -1.301042606982605321E-15, 10.00000000000000000 ) ) ;
#43 = ADVANCED_FACE ( 'NONE', ( #87, #296 ), #62, .T. ) ;
#44 = VERTEX_POINT ( 'NONE', #141 ) ;
#45 = CARTESIAN_POINT ( 'NONE',  ( 1.745740669421566678E-14, 0.4699999999999993627, 5.000000000000000000 ) ) ;
#46 = CC_DESIGN_DATE_AND_TIME_ASSIGNMENT ( #178, #47, ( #234 ) ) ;
#47 = DATE_TIME_ROLE ( 'classification_date' ) ;
#48 = PERSON_AND_ORGANIZATION ( #137, #205 ) ;
#49 = EDGE_LOOP ( 'NONE', ( #203 ) ) ;
#50 = VERTEX_POINT ( 'NONE', #221 ) ;
#51 = LOCAL_TIME ( 11, 40, 12.00000000000000000, #214 ) ;
#52 = CALENDAR_DATE ( 2021, 1, 12 ) ;
#53 = DIRECTION ( 'NONE',  ( 4.275831445896959482E-31, 1.000000000000000000, 1.224646799147353207E-16 ) ) ;
#54 = ADVANCED_FACE ( 'NONE', ( #155 ), #36, .F. ) ;
#55 = CARTESIAN_POINT ( 'NONE',  ( -1.515910292311960059E-31, 5.317097550031550806E-33, -4.341739637692697286E-17 ) ) ;
#56 = EDGE_LOOP ( 'NONE', ( #144 ) ) ;
#57 = ADVANCED_FACE ( 'NONE', ( #16 ), #297, .F. ) ;
#58 = FACE_OUTER_BOUND ( 'NONE', #124, .T. ) ;
#59 = PLANE ( 'NONE',  #118 ) ;
#60 = AXIS2_PLACEMENT_3D ( 'NONE', #213, #6, #94 ) ;
#61 = DIRECTION ( 'NONE',  ( -3.491481338843133355E-15, 1.224646799147353207E-16, -1.000000000000000000 ) ) ;
#62 = CONICAL_SURFACE ( 'NONE', #34, 1.200000000000003286, 0.7853981633974453924 ) ;
#63 = CARTESIAN_POINT ( 'NONE',  ( 1.326762908760390423E-13, -4.653657836759941941E-15, 38.00000000000000000 ) ) ;
#64 = LOCAL_TIME ( 11, 40, 12.00000000000000000, #280 ) ;
#65 = APPROVAL_PERSON_ORGANIZATION ( #243, #290, #73 ) ;
#66 = CARTESIAN_POINT ( 'NONE',  ( 6.982962677686265724E-16, -2.449293598294705921E-17, 0.1999999999999999556 ) ) ;
#67 = VERTEX_POINT ( 'NONE', #236 ) ;
#68 = AXIS2_PLACEMENT_3D ( 'NONE', #200, #37, #133 ) ;
#69 = DIRECTION ( 'NONE',  ( 0.0000000000000000000, 1.000000000000000000, 0.0000000000000000000 ) ) ;
#70 = PERSON_AND_ORGANIZATION_ROLE ( 'creator' ) ;
#71 = MANIFOLD_SOLID_BREP ( 'Corps-Déplacer/Copier1[2]', #303 ) ;
#72 = EDGE_LOOP ( 'NONE', ( #164 ) ) ;
#73 = APPROVAL_ROLE ( '' ) ;
#74 = MANIFOLD_SOLID_BREP ( 'Corps-Déplacer/Copier1[1]', #140 ) ;
#75 = ORIENTED_EDGE ( 'NONE', *, *, #201, .T. ) ;
#76 = CALENDAR_DATE ( 2021, 1, 12 ) ;
#77 = CARTESIAN_POINT ( 'NONE',  ( 1.745740669421566678E-14, 3.524435489255356210E-33, 5.000000000000000000 ) ) ;
#78 = CC_DESIGN_DATE_AND_TIME_ASSIGNMENT ( #131, #105, ( #147 ) ) ;
#79 = APPLICATION_PROTOCOL_DEFINITION ( 'international standard', 'config_control_design', 1994, #184 ) ;
#80 = DIRECTION ( 'NONE',  ( 3.491481338843133355E-15, -1.224646799147353207E-16, 1.000000000000000000 ) ) ;
#81 = COORDINATED_UNIVERSAL_TIME_OFFSET ( 1, 0, .AHEAD. ) ;
#82 = DIRECTION ( 'NONE',  ( -3.491481338843133355E-15, 1.224646799147353207E-16, -1.000000000000000000 ) ) ;
#83 = APPROVAL ( #266, 'UNSPECIFIED' ) ;
#84 = ADVANCED_FACE ( 'NONE', ( #272 ), #59, .F. ) ;
#85 = CIRCLE ( 'NONE', #60, 1.500000000000003331 ) ;
#86 = ORIENTED_EDGE ( 'NONE', *, *, #27, .T. ) ;
#87 = FACE_OUTER_BOUND ( 'NONE', #273, .T. ) ;
#88 = DIRECTION ( 'NONE',  ( -3.491481338843133355E-15, 1.224646799147353207E-16, -1.000000000000000000 ) ) ;
#89 = LOCAL_TIME ( 11, 40, 12.00000000000000000, #81 ) ;
#90 =( GEOMETRIC_REPRESENTATION_CONTEXT ( 3 ) GLOBAL_UNCERTAINTY_ASSIGNED_CONTEXT ( ( #173 ) ) GLOBAL_UNIT_ASSIGNED_CONTEXT ( ( #13, #149, #107 ) ) REPRESENTATION_CONTEXT ( 'NONE', 'WORKASPACE' ) );
#91 = DIRECTION ( 'NONE',  ( 3.491481338843133355E-15, -1.224646799147353207E-16, 1.000000000000000000 ) ) ;
#92 = ADVANCED_FACE ( 'NONE', ( #247, #35 ), #132, .T. ) ;
#93 = CONICAL_SURFACE ( 'NONE', #267, 1.499999999999997335, 0.1745329251994261199 ) ;
#94 = DIRECTION ( 'NONE',  ( 0.0000000000000000000, 1.000000000000000000, 0.0000000000000000000 ) ) ;
#95 = EDGE_LOOP ( 'NONE', ( #3 ) ) ;
#96 = PRODUCT_DEFINITION_SHAPE ( 'NONE', 'NONE',  #147 ) ;
#97 = FACE_BOUND ( 'NONE', #56, .T. ) ;
#98 = FACE_OUTER_BOUND ( 'NONE', #72, .T. ) ;
#99 = ORIENTED_EDGE ( 'NONE', *, *, #177, .T. ) ;
#100 = ADVANCED_FACE ( 'NONE', ( #259, #286 ), #287, .T. ) ;
#101 = AXIS2_PLACEMENT_3D ( 'NONE', #139, #136, #69 ) ;
#102 = PERSON_AND_ORGANIZATION ( #137, #205 ) ;
#103 = ORIENTED_EDGE ( 'NONE', *, *, #158, .F. ) ;
#104 = PERSON_AND_ORGANIZATION_ROLE ( 'design_owner' ) ;
#105 = DATE_TIME_ROLE ( 'creation_date' ) ;
#106 = CARTESIAN_POINT ( 'NONE',  ( 3.612739213212769111E-14, -1.267178336138866772E-15, 10.34729635533384595 ) ) ;
#107 =( NAMED_UNIT ( * ) SI_UNIT ( $, .STERADIAN. ) SOLID_ANGLE_UNIT ( ) );
#108 = FACE_OUTER_BOUND ( 'NONE', #31, .T. ) ;
#109 = APPROVAL_DATE_TIME ( #148, #23 ) ;
#110 = DIRECTION ( 'NONE',  ( 4.275831445896958607E-31, 1.000000000000000000, 1.224646799147353207E-16 ) ) ;
#111 = ORIENTED_EDGE ( 'NONE', *, *, #269, .T. ) ;
#112 = CC_DESIGN_APPROVAL ( #290, ( #147 ) ) ;
#113 = FACE_BOUND ( 'NONE', #49, .T. ) ;
#114 = DIRECTION ( 'NONE',  ( 0.0000000000000000000, 1.000000000000000000, 0.0000000000000000000 ) ) ;
#115 = CARTESIAN_POINT ( 'NONE',  ( 5.691101207231110669E-14, -1.996169591262521320E-15, 16.29996169223920077 ) ) ;
#116 = AXIS2_PLACEMENT_3D ( 'NONE', #115, #117, #25 ) ;
#117 = DIRECTION ( 'NONE',  ( -3.491481338843133355E-15, 1.224646799147353207E-16, -1.000000000000000000 ) ) ;
#118 = AXIS2_PLACEMENT_3D ( 'NONE', #174, #150, #152 ) ;
#119 = DIRECTION ( 'NONE',  ( 0.0000000000000000000, 1.000000000000000000, 0.0000000000000000000 ) ) ;
#120 = PRODUCT ( '327006', '327006', '', ( #175 ) ) ;
#121 = DIRECTION ( 'NONE',  ( 3.491481338843133355E-15, -1.224646799147353207E-16, 1.000000000000000000 ) ) ;
#122 = DIRECTION ( 'NONE',  ( 0.0000000000000000000, 0.0000000000000000000, 1.000000000000000000 ) ) ;
#123 = PERSON_AND_ORGANIZATION_ROLE ( 'design_supplier' ) ;
#124 = EDGE_LOOP ( 'NONE', ( #75 ) ) ;
#125 = CC_DESIGN_PERSON_AND_ORGANIZATION_ASSIGNMENT ( #172, #70, ( #18 ) ) ;
#126 = COORDINATED_UNIVERSAL_TIME_OFFSET ( 1, 0, .AHEAD. ) ;
#127 = ORIENTED_EDGE ( 'NONE', *, *, #254, .F. ) ;
#128 = CARTESIAN_POINT ( 'NONE',  ( 0.0000000000000000000, 0.0000000000000000000, 0.0000000000000000000 ) ) ;
#129 = EDGE_LOOP ( 'NONE', ( #99 ) ) ;
#130 = CIRCLE ( 'NONE', #242, 0.4699999999999999734 ) ;
#131 = DATE_AND_TIME ( #33, #282 ) ;
#132 = CYLINDRICAL_SURFACE ( 'NONE', #292, 1.500000000000000444 ) ;
#133 = DIRECTION ( 'NONE',  ( 4.275831445896958607E-31, 1.000000000000000000, 1.224646799147353207E-16 ) ) ;
#134 = EDGE_LOOP ( 'NONE', ( #289 ) ) ;
#135 = CIRCLE ( 'NONE', #40, 0.3545299461620759485 ) ;
#136 = DIRECTION ( 'NONE',  ( -3.491481338843133355E-15, 1.224646799147353207E-16, -1.000000000000000000 ) ) ;
#137 = PERSON ( 'UNSPECIFIED', 'UNSPECIFIED', 'UNSPECIFIED', ('UNSPECIFIED'), ('UNSPECIFIED'), ('UNSPECIFIED') ) ;
#138 = VERTEX_POINT ( 'NONE', #143 ) ;
#139 = CARTESIAN_POINT ( 'NONE',  ( 1.745740669421566678E-14, -6.123233995736766282E-16, 5.000000000000000000 ) ) ;
#140 = CLOSED_SHELL ( 'NONE', ( #57, #100, #38, #285, #5, #92, #43, #54 ) ) ;
#141 = CARTESIAN_POINT ( 'NONE',  ( 1.745740669421566678E-14, 0.4699999999999993627, 5.000000000000000000 ) ) ;
#142 = CIRCLE ( 'NONE', #101, 0.4699999999999999734 ) ;
#143 = CARTESIAN_POINT ( 'NONE',  ( 1.326762908760390423E-13, 1.199999999999998845, 38.00000000000000000 ) ) ;
#144 = ORIENTED_EDGE ( 'NONE', *, *, #15, .F. ) ;
#145 = APPLICATION_PROTOCOL_DEFINITION ( 'international standard', 'config_control_design', 1994, #217 ) ;
#146 = EDGE_LOOP ( 'NONE', ( #170 ) ) ;
#147 = PRODUCT_DEFINITION ( 'UNKNOWN', '', #18, #30 ) ;
#148 = DATE_AND_TIME ( #76, #51 ) ;
#149 =( NAMED_UNIT ( * ) PLANE_ANGLE_UNIT ( ) SI_UNIT ( $, .RADIAN. ) );
#150 = DIRECTION ( 'NONE',  ( 3.491481338843133355E-15, -1.224646799147353207E-16, 1.000000000000000000 ) ) ;
#151 = COORDINATED_UNIVERSAL_TIME_OFFSET ( 1, 0, .AHEAD. ) ;
#152 = DIRECTION ( 'NONE',  ( -4.275831445896958607E-31, -1.000000000000000000, -1.224646799147353207E-16 ) ) ;
#153 = AXIS2_PLACEMENT_3D ( 'NONE', #4, #121, #231 ) ;
#154 = CARTESIAN_POINT ( 'NONE',  ( 1.326762908760390423E-13, -4.653657836759941941E-15, 38.00000000000000000 ) ) ;
#155 = FACE_OUTER_BOUND ( 'NONE', #134, .T. ) ;
#156 = CC_DESIGN_PERSON_AND_ORGANIZATION_ASSIGNMENT ( #270, #295, ( #234 ) ) ;
#157 = DIRECTION ( 'NONE',  ( 3.491481338843133355E-15, -1.224646799147353207E-16, 1.000000000000000000 ) ) ;
#158 = EDGE_CURVE ( 'NONE', #44, #44, #130, .T. ) ;
#159 = SHAPE_DEFINITION_REPRESENTATION ( #96, #225 ) ;
#160 = CIRCLE ( 'NONE', #22, 0.4699999999999993627 ) ;
#161 = FACE_OUTER_BOUND ( 'NONE', #216, .T. ) ;
#162 = AXIS2_PLACEMENT_3D ( 'NONE', #128, #122, #169 ) ;
#163 = VERTEX_POINT ( 'NONE', #302 ) ;
#164 = ORIENTED_EDGE ( 'NONE', *, *, #165, .T. ) ;
#165 = EDGE_CURVE ( 'NONE', #67, #67, #160, .T. ) ;
#166 = CARTESIAN_POINT ( 'NONE',  ( 1.745740669421566678E-14, -6.123233995736766282E-16, 5.000000000000000000 ) ) ;
#167 = AXIS2_PLACEMENT_3D ( 'NONE', #106, #82, #176 ) ;
#168 = PLANE ( 'NONE',  #153 ) ;
#169 = DIRECTION ( 'NONE',  ( 1.000000000000000000, 0.0000000000000000000, 0.0000000000000000000 ) ) ;
#170 = ORIENTED_EDGE ( 'NONE', *, *, #9, .T. ) ;
#171 = AXIS2_PLACEMENT_3D ( 'NONE', #77, #80, #250 ) ;
#172 = PERSON_AND_ORGANIZATION ( #137, #205 ) ;
#173 = UNCERTAINTY_MEASURE_WITH_UNIT (LENGTH_MEASURE( 1.000000000000000082E-05 ), #13, 'distance_accuracy_value', 'NONE');
#174 = CARTESIAN_POINT ( 'NONE',  ( -7.579551461559800294E-32, 2.658548775015775403E-33, -2.170869818846348643E-17 ) ) ;
#175 = MECHANICAL_CONTEXT ( 'NONE', #184, 'mechanical' ) ;
#176 = DIRECTION ( 'NONE',  ( 0.0000000000000000000, 1.000000000000000000, 0.0000000000000000000 ) ) ;
#177 = EDGE_CURVE ( 'NONE', #260, #260, #142, .T. ) ;
#178 = DATE_AND_TIME ( #52, #89 ) ;
#179 = EDGE_LOOP ( 'NONE', ( #241 ) ) ;
#180 = AXIS2_PLACEMENT_3D ( 'NONE', #63, #262, #119 ) ;
#181 = EDGE_LOOP ( 'NONE', ( #111 ) ) ;
#182 = APPROVAL_ROLE ( '' ) ;
#183 = DIRECTION ( 'NONE',  ( -3.491481338843133355E-15, 1.224646799147353207E-16, -1.000000000000000000 ) ) ;
#184 = APPLICATION_CONTEXT ( 'configuration controlled 3d designs of mechanical parts and assemblies' ) ;
#185 = DIRECTION ( 'NONE',  ( 4.275831445896958607E-31, 1.000000000000000000, 1.224646799147353207E-16 ) ) ;
#186 = APPROVAL_DATE_TIME ( #228, #83 ) ;
#187 = CIRCLE ( 'NONE', #215, 0.4199999999999993183 ) ;
#188 = FACE_OUTER_BOUND ( 'NONE', #129, .T. ) ;
#189 = APPROVAL_PERSON_ORGANIZATION ( #48, #23, #224 ) ;
#190 = VERTEX_POINT ( 'NONE', #283 ) ;
#191 = EDGE_CURVE ( 'NONE', #138, #138, #198, .T. ) ;
#192 = DIRECTION ( 'NONE',  ( -4.097723285930294751E-31, -1.000000000000000000, -1.153406566473942492E-16 ) ) ;
#193 = VERTEX_POINT ( 'NONE', #284 ) ;
#194 = DATE_AND_TIME ( #7, #230 ) ;
#195 = APPROVAL_STATUS ( 'not_yet_approved' ) ;
#196 = PRODUCT_RELATED_PRODUCT_CATEGORY ( 'detail', '', ( #120 ) ) ;
#197 = CYLINDRICAL_SURFACE ( 'NONE', #68, 0.4199999999999997624 ) ;
#198 = CIRCLE ( 'NONE', #180, 1.200000000000003286 ) ;
#199 = CARTESIAN_POINT ( 'NONE',  ( 1.316288464743861212E-13, 1.499999999999998668, 37.69999999999999574 ) ) ;
#200 = CARTESIAN_POINT ( 'NONE',  ( 0.0000000000000000000, 0.0000000000000000000, 0.0000000000000000000 ) ) ;
#201 = EDGE_CURVE ( 'NONE', #232, #232, #279, .T. ) ;
#202 = SECURITY_CLASSIFICATION_LEVEL ( 'unclassified' ) ;
#203 = ORIENTED_EDGE ( 'NONE', *, *, #9, .F. ) ;
#204 = CARTESIAN_POINT ( 'NONE',  ( 5.691101207231110669E-14, -1.996169591262521320E-15, 16.29996169223920077 ) ) ;
#205 = ORGANIZATION ( 'UNSPECIFIED', 'UNSPECIFIED', '' ) ;
#206 = ORIENTED_EDGE ( 'NONE', *, *, #254, .T. ) ;
#207 = DIRECTION ( 'NONE',  ( -3.491481338843133355E-15, 1.224646799147353207E-16, -1.000000000000000000 ) ) ;
#208 = DIRECTION ( 'NONE',  ( -3.491481338843133355E-15, 1.224646799147353207E-16, -1.000000000000000000 ) ) ;
#209 = AXIS2_PLACEMENT_3D ( 'NONE', #276, #294, #249 ) ;
#210 = ADVANCED_FACE ( 'NONE', ( #212 ), #168, .T. ) ;
#211 = DIRECTION ( 'NONE',  ( 0.0000000000000000000, 1.000000000000000000, 0.0000000000000000000 ) ) ;
#212 = FACE_OUTER_BOUND ( 'NONE', #275, .T. ) ;
#213 = CARTESIAN_POINT ( 'NONE',  ( 1.316288464743861212E-13, -4.616918432785521081E-15, 37.69999999999999574 ) ) ;
#214 = COORDINATED_UNIVERSAL_TIME_OFFSET ( 1, 0, .AHEAD. ) ;
#215 = AXIS2_PLACEMENT_3D ( 'NONE', #255, #61, #211 ) ;
#216 = EDGE_LOOP ( 'NONE', ( #17 ) ) ;
#217 = APPLICATION_CONTEXT ( 'configuration controlled 3d designs of mechanical parts and assemblies' ) ;
#218 = EDGE_LOOP ( 'NONE', ( #246 ) ) ;
#219 = APPROVAL_DATE_TIME ( #194, #290 ) ;
#220 = CARTESIAN_POINT ( 'NONE',  ( 3.491481338843132724E-14, -1.224646799147353059E-15, 9.999999999999998224 ) ) ;
#221 = CARTESIAN_POINT ( 'NONE',  ( 1.775977784784342036E-14, 0.4199999999999987077, 5.086602540378446058 ) ) ;
#222 = EDGE_LOOP ( 'NONE', ( #268 ) ) ;
#223 = CIRCLE ( 'NONE', #167, 0.4503844939755805021 ) ;
#224 = APPROVAL_ROLE ( '' ) ;
#225 = ADVANCED_BREP_SHAPE_REPRESENTATION ( '327006', ( #74, #71, #162 ), #90 ) ;
#226 = CARTESIAN_POINT ( 'NONE',  ( 0.0000000000000000000, 0.0000000000000000000, 0.0000000000000000000 ) ) ;
#227 = EDGE_LOOP ( 'NONE', ( #206 ) ) ;
#228 = DATE_AND_TIME ( #251, #64 ) ;
#229 = ORIENTED_EDGE ( 'NONE', *, *, #177, .F. ) ;
#230 = LOCAL_TIME ( 11, 40, 12.00000000000000000, #151 ) ;
#231 = DIRECTION ( 'NONE',  ( -4.275831445896958607E-31, -1.000000000000000000, -1.224646799147353207E-16 ) ) ;
#232 = VERTEX_POINT ( 'NONE', #20 ) ;
#233 = CYLINDRICAL_SURFACE ( 'NONE', #238, 0.4699999999999996958 ) ;
#234 = SECURITY_CLASSIFICATION ( '', '', #202 ) ;
#235 = CC_DESIGN_PERSON_AND_ORGANIZATION_ASSIGNMENT ( #263, #10, ( #147 ) ) ;
#236 = CARTESIAN_POINT ( 'NONE',  ( 6.982962677686267697E-16, 0.4699999999999993627, 0.2000000000000000111 ) ) ;
#237 = CONICAL_SURFACE ( 'NONE', #298, 0.4699999999999993627, 0.5235987755982923764 ) ;
#238 = AXIS2_PLACEMENT_3D ( 'NONE', #19, #207, #301 ) ;
#239 = EDGE_LOOP ( 'NONE', ( #32 ) ) ;
#240 = DIRECTION ( 'NONE',  ( -3.491481338843133355E-15, 1.224646799147353207E-16, -1.000000000000000000 ) ) ;
#241 = ORIENTED_EDGE ( 'NONE', *, *, #191, .T. ) ;
#242 = AXIS2_PLACEMENT_3D ( 'NONE', #166, #253, #114 ) ;
#243 = PERSON_AND_ORGANIZATION ( #137, #205 ) ;
#244 = ADVANCED_FACE ( 'NONE', ( #21, #188 ), #233, .T. ) ;
#245 = VERTEX_POINT ( 'NONE', #199 ) ;
#246 = ORIENTED_EDGE ( 'NONE', *, *, #15, .T. ) ;
#247 = FACE_OUTER_BOUND ( 'NONE', #95, .T. ) ;
#248 = AXIS2_PLACEMENT_3D ( 'NONE', #24, #88, #2 ) ;
#249 = DIRECTION ( 'NONE',  ( 4.275831445896958607E-31, 1.000000000000000000, 1.224646799147353207E-16 ) ) ;
#250 = DIRECTION ( 'NONE',  ( -4.275831445896958607E-31, -1.000000000000000000, -1.224646799147353207E-16 ) ) ;
#251 = CALENDAR_DATE ( 2021, 1, 12 ) ;
#252 = DIRECTION ( 'NONE',  ( -3.491481338843133355E-15, 1.224646799147353207E-16, -1.000000000000000000 ) ) ;
#253 = DIRECTION ( 'NONE',  ( -3.491481338843133355E-15, 1.224646799147353207E-16, -1.000000000000000000 ) ) ;
#254 = EDGE_CURVE ( 'NONE', #50, #50, #187, .T. ) ;
#255 = CARTESIAN_POINT ( 'NONE',  ( 1.775977784784342036E-14, -6.229291519609259858E-16, 5.086602540378446058 ) ) ;
#256 = CC_DESIGN_APPROVAL ( #83, ( #234 ) ) ;
#257 = TOROIDAL_SURFACE ( 'NONE', #261, 2.419999999999999929, 2.000000000000000000 ) ;
#258 = CC_DESIGN_PERSON_AND_ORGANIZATION_ASSIGNMENT ( #29, #104, ( #120 ) ) ;
#259 = FACE_OUTER_BOUND ( 'NONE', #264, .T. ) ;
#260 = VERTEX_POINT ( 'NONE', #45 ) ;
#261 = AXIS2_PLACEMENT_3D ( 'NONE', #42, #208, #185 ) ;
#262 = DIRECTION ( 'NONE',  ( -3.491481338843133355E-15, 1.224646799147353207E-16, -1.000000000000000000 ) ) ;
#263 = PERSON_AND_ORGANIZATION ( #137, #205 ) ;
#264 = EDGE_LOOP ( 'NONE', ( #103 ) ) ;
#265 = CC_DESIGN_APPROVAL ( #23, ( #18 ) ) ;
#266 = APPROVAL_STATUS ( 'not_yet_approved' ) ;
#267 = AXIS2_PLACEMENT_3D ( 'NONE', #204, #157, #11 ) ;
#268 = ORIENTED_EDGE ( 'NONE', *, *, #158, .T. ) ;
#269 = EDGE_CURVE ( 'NONE', #245, #245, #85, .T. ) ;
#270 = PERSON_AND_ORGANIZATION ( #137, #205 ) ;
#271 = FACE_OUTER_BOUND ( 'NONE', #8, .T. ) ;
#272 = FACE_OUTER_BOUND ( 'NONE', #218, .T. ) ;
#273 = EDGE_LOOP ( 'NONE', ( #26 ) ) ;
#274 = CIRCLE ( 'NONE', #1, 0.4200000000000002065 ) ;
#275 = EDGE_LOOP ( 'NONE', ( #229 ) ) ;
#276 = CARTESIAN_POINT ( 'NONE',  ( 1.326762908760390423E-13, 8.998558695971103225E-33, 38.00000000000000000 ) ) ;
#277 = DIRECTION ( 'NONE',  ( 4.097723285930294751E-31, 1.000000000000000000, 1.153406566473942492E-16 ) ) ;
#278 = CC_DESIGN_PERSON_AND_ORGANIZATION_ASSIGNMENT ( #102, #123, ( #18 ) ) ;
#279 = CIRCLE ( 'NONE', #116, 1.499999999999997335 ) ;
#280 = COORDINATED_UNIVERSAL_TIME_OFFSET ( 1, 0, .AHEAD. ) ;
#281 = CARTESIAN_POINT ( 'NONE',  ( 6.982962677686265724E-16, -2.449293598294705921E-17, 0.1999999999999999556 ) ) ;
#282 = LOCAL_TIME ( 11, 40, 12.00000000000000000, #126 ) ;
#283 = CARTESIAN_POINT ( 'NONE',  ( 2.138211768073756517E-47, 0.3545299461620759485, 0.0000000000000000000 ) ) ;
#284 = CARTESIAN_POINT ( 'NONE',  ( 3.612739213212769111E-14, 0.4503844939755792809, 10.34729635533384595 ) ) ;
#285 = ADVANCED_FACE ( 'NONE', ( #161, #41 ), #257, .F. ) ;
#286 = FACE_BOUND ( 'NONE', #227, .T. ) ;
#287 = CONICAL_SURFACE ( 'NONE', #248, 0.4199999999999993183, 0.5235987755982948189 ) ;
#288 = PERSON_AND_ORGANIZATION ( #137, #205 ) ;
#289 = ORIENTED_EDGE ( 'NONE', *, *, #191, .F. ) ;
#290 = APPROVAL ( #291, 'UNSPECIFIED' ) ;
#291 = APPROVAL_STATUS ( 'not_yet_approved' ) ;
#292 = AXIS2_PLACEMENT_3D ( 'NONE', #226, #14, #110 ) ;
#293 = DIRECTION ( 'NONE',  ( 0.0000000000000000000, 1.000000000000000000, 0.0000000000000000000 ) ) ;
#294 = DIRECTION ( 'NONE',  ( -3.491481338843133355E-15, 1.224646799147353207E-16, -1.000000000000000000 ) ) ;
#295 = PERSON_AND_ORGANIZATION_ROLE ( 'classification_officer' ) ;
#296 = FACE_BOUND ( 'NONE', #179, .T. ) ;
#297 = PLANE ( 'NONE',  #171 ) ;
#298 = AXIS2_PLACEMENT_3D ( 'NONE', #66, #91, #192 ) ;
#299 = DIRECTION ( 'NONE',  ( -3.491481338843133355E-15, 1.224646799147353207E-16, -1.000000000000000000 ) ) ;
#300 = ADVANCED_FACE ( 'NONE', ( #97, #98 ), #237, .T. ) ;
#301 = DIRECTION ( 'NONE',  ( 4.275831445896958607E-31, 1.000000000000000000, 1.224646799147353454E-16 ) ) ;
#302 = CARTESIAN_POINT ( 'NONE',  ( 3.491481338843132724E-14, 0.4199999999999989297, 9.999999999999998224 ) ) ;
#303 = CLOSED_SHELL ( 'NONE', ( #84, #300, #244, #210 ) ) ;
ENDSEC;
END-ISO-10303-21;
