ISO-10303-21;
HEADER;
FILE_DESCRIPTION (( 'STEP AP203' ),
    '1' );
FILE_NAME ('327005.step',
    '2021-12-01T10:40:11',
    ( '' ),
    ( '' ),
    'SwSTEP 2.0',
    'SolidWorks 2019',
    '' );
FILE_SCHEMA (( 'CONFIG_CONTROL_DESIGN' ));
ENDSEC;

DATA;
#1 = AXIS2_PLACEMENT_3D ( 'NONE', #237, #263, #195 ) ;
#2 = APPLICATION_PROTOCOL_DEFINITION ( 'international standard', 'config_control_design', 1994, #84 ) ;
#3 = CALENDAR_DATE ( 2021, 1, 12 ) ;
#4 = CC_DESIGN_SECURITY_CLASSIFICATION ( #290, ( #180 ) ) ;
#5 = CALENDAR_DATE ( 2021, 1, 12 ) ;
#6 = APPROVAL_DATE_TIME ( #281, #228 ) ;
#7 = ORIENTED_EDGE ( 'NONE', *, *, #176, .T. ) ;
#8 = CIRCLE ( 'NONE', #219, 0.4649999999999995248 ) ;
#9 = PLANE ( 'NONE',  #197 ) ;
#10 = ADVANCED_FACE ( 'NONE', ( #147 ), #241, .T. ) ;
#11 = DIRECTION ( 'NONE',  ( -3.491481338843133355E-15, 1.224646799147353207E-16, -1.000000000000000000 ) ) ;
#12 = FACE_OUTER_BOUND ( 'NONE', #24, .T. ) ;
#13 = CC_DESIGN_PERSON_AND_ORGANIZATION_ASSIGNMENT ( #191, #53, ( #180 ) ) ;
#14 = AXIS2_PLACEMENT_3D ( 'NONE', #178, #11, #106 ) ;
#15 = DIRECTION ( 'NONE',  ( -3.491481338843133355E-15, 1.224646799147353207E-16, -1.000000000000000000 ) ) ;
#16 = CARTESIAN_POINT ( 'NONE',  ( -1.494531135082475563E-31, 5.242109560898459431E-33, -4.280507297735330993E-17 ) ) ;
#17 = DIRECTION ( 'NONE',  ( 3.491481338843133355E-15, -1.224646799147353207E-16, 1.000000000000000000 ) ) ;
#18 = ORIENTED_EDGE ( 'NONE', *, *, #216, .F. ) ;
#19 = FACE_OUTER_BOUND ( 'NONE', #89, .T. ) ;
#20 = CARTESIAN_POINT ( 'NONE',  ( 1.772954073248064217E-14, 0.4199999999999989853, 5.077942286340601186 ) ) ;
#21 = EDGE_LOOP ( 'NONE', ( #298 ) ) ;
#22 = EDGE_CURVE ( 'NONE', #294, #294, #194, .T. ) ;
#23 = DIRECTION ( 'NONE',  ( 0.0000000000000000000, 1.000000000000000000, 0.0000000000000000000 ) ) ;
#24 = EDGE_LOOP ( 'NONE', ( #278 ) ) ;
#25 = CIRCLE ( 'NONE', #213, 0.4199999999999995959 ) ;
#26 = PERSON_AND_ORGANIZATION_ROLE ( 'design_owner' ) ;
#27 = DIRECTION ( 'NONE',  ( 1.000000000000000000, 0.0000000000000000000, 0.0000000000000000000 ) ) ;
#28 = AXIS2_PLACEMENT_3D ( 'NONE', #189, #86, #94 ) ;
#29 = DATE_AND_TIME ( #54, #114 ) ;
#30 = DIRECTION ( 'NONE',  ( -3.491481338843133355E-15, 1.224646799147353207E-16, -1.000000000000000000 ) ) ;
#31 = APPROVAL_DATE_TIME ( #242, #98 ) ;
#32 = DIRECTION ( 'NONE',  ( -3.491481338843133355E-15, 1.224646799147353207E-16, -1.000000000000000000 ) ) ;
#33 = DIRECTION ( 'NONE',  ( -3.491481338843133355E-15, 1.224646799147353207E-16, -1.000000000000000000 ) ) ;
#34 = ADVANCED_FACE ( 'NONE', ( #218, #12 ), #151, .F. ) ;
#35 = APPLICATION_CONTEXT ( 'configuration controlled 3d designs of mechanical parts and assemblies' ) ;
#36 = FACE_OUTER_BOUND ( 'NONE', #144, .T. ) ;
#37 = CC_DESIGN_PERSON_AND_ORGANIZATION_ASSIGNMENT ( #261, #240, ( #290 ) ) ;
#38 = DIRECTION ( 'NONE',  ( 0.0000000000000000000, 1.000000000000000000, 0.0000000000000000000 ) ) ;
#39 = CIRCLE ( 'NONE', #14, 1.500000000000003331 ) ;
#40 = CC_DESIGN_APPROVAL ( #228, ( #290 ) ) ;
#41 = FACE_BOUND ( 'NONE', #192, .T. ) ;
#42 = CARTESIAN_POINT ( 'NONE',  ( 0.0000000000000000000, 0.3495299461620759995, 0.0000000000000000000 ) ) ;
#43 = CARTESIAN_POINT ( 'NONE',  ( 6.982962677686268683E-16, 0.4649999999999995248, 0.2000000000000000389 ) ) ;
#44 = DIRECTION ( 'NONE',  ( 4.141784826639221201E-31, 1.000000000000000000, 1.165808787618823186E-16 ) ) ;
#45 = CARTESIAN_POINT ( 'NONE',  ( 3.491481338843132724E-14, 0.4199999999999989297, 9.999999999999998224 ) ) ;
#46 = ORIENTED_EDGE ( 'NONE', *, *, #52, .T. ) ;
#47 = VERTEX_POINT ( 'NONE', #88 ) ;
#48 = ORIENTED_EDGE ( 'NONE', *, *, #236, .T. ) ;
#49 = COORDINATED_UNIVERSAL_TIME_OFFSET ( 1, 0, .AHEAD. ) ;
#50 = AXIS2_PLACEMENT_3D ( 'NONE', #247, #33, #181 ) ;
#51 = COORDINATED_UNIVERSAL_TIME_OFFSET ( 1, 0, .AHEAD. ) ;
#52 = EDGE_CURVE ( 'NONE', #256, #256, #173, .T. ) ;
#53 = PERSON_AND_ORGANIZATION_ROLE ( 'design_supplier' ) ;
#54 = CALENDAR_DATE ( 2021, 1, 12 ) ;
#55 = EDGE_LOOP ( 'NONE', ( #185 ) ) ;
#56 = CYLINDRICAL_SURFACE ( 'NONE', #224, 0.4649999999999998024 ) ;
#57 = DIRECTION ( 'NONE',  ( 0.0000000000000000000, 1.000000000000000000, 0.0000000000000000000 ) ) ;
#58 = CARTESIAN_POINT ( 'NONE',  ( 3.612739213212769111E-14, -1.267178336138866772E-15, 10.34729635533384595 ) ) ;
#59 = CARTESIAN_POINT ( 'NONE',  ( 1.772954073248064217E-14, -6.218685767222009416E-16, 5.077942286340601186 ) ) ;
#60 = DIRECTION ( 'NONE',  ( -3.491481338843133355E-15, 1.224646799147353207E-16, -1.000000000000000000 ) ) ;
#61 = CC_DESIGN_PERSON_AND_ORGANIZATION_ASSIGNMENT ( #100, #77, ( #174 ) ) ;
#62 = CONICAL_SURFACE ( 'NONE', #50, 0.4199999999999995959, 0.5235987755982977054 ) ;
#63 = CARTESIAN_POINT ( 'NONE',  ( 1.745740669421566678E-14, 0.4649999999999995248, 5.000000000000000000 ) ) ;
#64 = EDGE_CURVE ( 'NONE', #65, #65, #93, .T. ) ;
#65 = VERTEX_POINT ( 'NONE', #42 ) ;
#66 = EDGE_LOOP ( 'NONE', ( #258 ) ) ;
#67 = FACE_OUTER_BOUND ( 'NONE', #302, .T. ) ;
#68 = ORIENTED_EDGE ( 'NONE', *, *, #125, .T. ) ;
#69 = APPLICATION_PROTOCOL_DEFINITION ( 'international standard', 'config_control_design', 1994, #35 ) ;
#70 = LOCAL_TIME ( 11, 40, 11.00000000000000000, #49 ) ;
#71 = FACE_OUTER_BOUND ( 'NONE', #251, .T. ) ;
#72 = MANIFOLD_SOLID_BREP ( 'Corps-Déplacer/Copier1[1]', #137 ) ;
#73 = PERSON_AND_ORGANIZATION ( #153, #205 ) ;
#74 = DATE_TIME_ROLE ( 'creation_date' ) ;
#75 = AXIS2_PLACEMENT_3D ( 'NONE', #254, #235, #27 ) ;
#76 = APPROVAL_PERSON_ORGANIZATION ( #217, #228, #102 ) ;
#77 = PERSON_AND_ORGANIZATION_ROLE ( 'creator' ) ;
#78 = EDGE_LOOP ( 'NONE', ( #112 ) ) ;
#79 = DESIGN_CONTEXT ( 'detailed design', #84, 'design' ) ;
#80 = AXIS2_PLACEMENT_3D ( 'NONE', #287, #288, #291 ) ;
#81 = CARTESIAN_POINT ( 'NONE',  ( 1.326762908760390423E-13, -4.653657836759941941E-15, 38.00000000000000000 ) ) ;
#82 = CONICAL_SURFACE ( 'NONE', #28, 1.499999999999997335, 0.1745329251994261199 ) ;
#83 = FACE_OUTER_BOUND ( 'NONE', #66, .T. ) ;
#84 = APPLICATION_CONTEXT ( 'configuration controlled 3d designs of mechanical parts and assemblies' ) ;
#85 = DIRECTION ( 'NONE',  ( -3.491481338843133355E-15, 1.224646799147353207E-16, -1.000000000000000000 ) ) ;
#86 = DIRECTION ( 'NONE',  ( 3.491481338843133355E-15, -1.224646799147353207E-16, 1.000000000000000000 ) ) ;
#87 = EDGE_LOOP ( 'NONE', ( #272 ) ) ;
#88 = CARTESIAN_POINT ( 'NONE',  ( 5.691101207231110669E-14, 1.499999999999995559, 16.29996169223920077 ) ) ;
#89 = EDGE_LOOP ( 'NONE', ( #68 ) ) ;
#90 = ORIENTED_EDGE ( 'NONE', *, *, #149, .T. ) ;
#91 = PRODUCT_DEFINITION_SHAPE ( 'NONE', 'NONE',  #174 ) ;
#92 = ORIENTED_EDGE ( 'NONE', *, *, #64, .T. ) ;
#93 = CIRCLE ( 'NONE', #127, 0.3495299461620759995 ) ;
#94 = DIRECTION ( 'NONE',  ( 0.0000000000000000000, -1.000000000000000000, 0.0000000000000000000 ) ) ;
#95 = DATE_AND_TIME ( #146, #214 ) ;
#96 = EDGE_LOOP ( 'NONE', ( #92 ) ) ;
#97 = APPROVAL_DATE_TIME ( #172, #122 ) ;
#98 = APPROVAL ( #286, 'UNSPECIFIED' ) ;
#99 = ADVANCED_FACE ( 'NONE', ( #223 ), #9, .F. ) ;
#100 = PERSON_AND_ORGANIZATION ( #153, #205 ) ;
#101 = AXIS2_PLACEMENT_3D ( 'NONE', #204, #17, #207 ) ;
#102 = APPROVAL_ROLE ( '' ) ;
#103 = AXIS2_PLACEMENT_3D ( 'NONE', #293, #227, #110 ) ;
#104 = PLANE ( 'NONE',  #103 ) ;
#105 = DIRECTION ( 'NONE',  ( -3.491481338843133355E-15, 1.224646799147353207E-16, -1.000000000000000000 ) ) ;
#106 = DIRECTION ( 'NONE',  ( 0.0000000000000000000, 1.000000000000000000, 0.0000000000000000000 ) ) ;
#107 = APPROVAL_PERSON_ORGANIZATION ( #73, #122, #171 ) ;
#108 = ADVANCED_FACE ( 'NONE', ( #244 ), #134, .F. ) ;
#109 = CARTESIAN_POINT ( 'NONE',  ( 1.326762908760390423E-13, 8.998558695971103225E-33, 38.00000000000000000 ) ) ;
#110 = DIRECTION ( 'NONE',  ( -4.275831445896958607E-31, -1.000000000000000000, -1.224646799147353207E-16 ) ) ;
#111 = DIRECTION ( 'NONE',  ( 4.275831445896958607E-31, 1.000000000000000000, 1.224646799147353207E-16 ) ) ;
#112 = ORIENTED_EDGE ( 'NONE', *, *, #64, .F. ) ;
#113 = LOCAL_TIME ( 11, 40, 11.00000000000000000, #51 ) ;
#114 = LOCAL_TIME ( 11, 40, 11.00000000000000000, #128 ) ;
#115 =( NAMED_UNIT ( * ) SI_UNIT ( $, .STERADIAN. ) SOLID_ANGLE_UNIT ( ) );
#116 = EDGE_CURVE ( 'NONE', #47, #47, #121, .T. ) ;
#117 = CARTESIAN_POINT ( 'NONE',  ( 3.612739213212769111E-14, 0.4503844939755792809, 10.34729635533384595 ) ) ;
#118 = ORIENTED_EDGE ( 'NONE', *, *, #116, .F. ) ;
#119 = CARTESIAN_POINT ( 'NONE',  ( 1.745740669421566678E-14, 0.4649999999999995248, 5.000000000000000000 ) ) ;
#120 = ORIENTED_EDGE ( 'NONE', *, *, #116, .T. ) ;
#121 = CIRCLE ( 'NONE', #198, 1.499999999999997335 ) ;
#122 = APPROVAL ( #130, 'UNSPECIFIED' ) ;
#123 = COORDINATED_UNIVERSAL_TIME_OFFSET ( 1, 0, .AHEAD. ) ;
#124 = PERSON_AND_ORGANIZATION_ROLE ( 'creator' ) ;
#125 = EDGE_CURVE ( 'NONE', #249, #249, #39, .T. ) ;
#126 = MECHANICAL_CONTEXT ( 'NONE', #35, 'mechanical' ) ;
#127 = AXIS2_PLACEMENT_3D ( 'NONE', #16, #15, #202 ) ;
#128 = COORDINATED_UNIVERSAL_TIME_OFFSET ( 1, 0, .AHEAD. ) ;
#129 = DIRECTION ( 'NONE',  ( 0.0000000000000000000, 1.000000000000000000, 0.0000000000000000000 ) ) ;
#130 = APPROVAL_STATUS ( 'not_yet_approved' ) ;
#131 = CARTESIAN_POINT ( 'NONE',  ( 0.0000000000000000000, 0.0000000000000000000, 0.0000000000000000000 ) ) ;
#132 =( GEOMETRIC_REPRESENTATION_CONTEXT ( 3 ) GLOBAL_UNCERTAINTY_ASSIGNED_CONTEXT ( ( #299 ) ) GLOBAL_UNIT_ASSIGNED_CONTEXT ( ( #187, #277, #115 ) ) REPRESENTATION_CONTEXT ( 'NONE', 'WORKASPACE' ) );
#133 = FACE_OUTER_BOUND ( 'NONE', #276, .T. ) ;
#134 = PLANE ( 'NONE',  #289 ) ;
#135 = EDGE_CURVE ( 'NONE', #279, #279, #209, .T. ) ;
#136 = DIRECTION ( 'NONE',  ( -4.275831445896958607E-31, -1.000000000000000000, -1.224646799147353207E-16 ) ) ;
#137 = CLOSED_SHELL ( 'NONE', ( #99, #163, #157, #34, #268, #284, #239, #108 ) ) ;
#138 = LOCAL_TIME ( 11, 40, 11.00000000000000000, #215 ) ;
#139 = FACE_OUTER_BOUND ( 'NONE', #96, .T. ) ;
#140 = AXIS2_PLACEMENT_3D ( 'NONE', #245, #159, #177 ) ;
#141 = FACE_BOUND ( 'NONE', #274, .T. ) ;
#142 = CARTESIAN_POINT ( 'NONE',  ( 1.326762908760390423E-13, -4.653657836759941941E-15, 38.00000000000000000 ) ) ;
#143 = CARTESIAN_POINT ( 'NONE',  ( 0.0000000000000000000, 0.0000000000000000000, 0.0000000000000000000 ) ) ;
#144 = EDGE_LOOP ( 'NONE', ( #295 ) ) ;
#145 = CONICAL_SURFACE ( 'NONE', #101, 0.4649999999999995248, 0.5235987755982927094 ) ;
#146 = CALENDAR_DATE ( 2021, 1, 12 ) ;
#147 = FACE_OUTER_BOUND ( 'NONE', #188, .T. ) ;
#148 = CALENDAR_DATE ( 2021, 1, 12 ) ;
#149 = EDGE_CURVE ( 'NONE', #297, #297, #234, .T. ) ;
#150 = SECURITY_CLASSIFICATION_LEVEL ( 'unclassified' ) ;
#151 = TOROIDAL_SURFACE ( 'NONE', #80, 2.419999999999999929, 2.000000000000000000 ) ;
#152 = PERSON_AND_ORGANIZATION ( #153, #205 ) ;
#153 = PERSON ( 'UNSPECIFIED', 'UNSPECIFIED', 'UNSPECIFIED', ('UNSPECIFIED'), ('UNSPECIFIED'), ('UNSPECIFIED') ) ;
#154 = DIRECTION ( 'NONE',  ( 0.0000000000000000000, 1.000000000000000000, 0.0000000000000000000 ) ) ;
#155 = CYLINDRICAL_SURFACE ( 'NONE', #140, 0.4199999999999999289 ) ;
#156 = AXIS2_PLACEMENT_3D ( 'NONE', #238, #30, #129 ) ;
#157 = ADVANCED_FACE ( 'NONE', ( #36, #267 ), #155, .T. ) ;
#158 = DIRECTION ( 'NONE',  ( -3.491481338843133355E-15, 1.224646799147353207E-16, -1.000000000000000000 ) ) ;
#159 = DIRECTION ( 'NONE',  ( -3.491481338843133355E-15, 1.224646799147353207E-16, -1.000000000000000000 ) ) ;
#160 = AXIS2_PLACEMENT_3D ( 'NONE', #58, #60, #57 ) ;
#161 = PRODUCT ( '327005', '327005', '', ( #126 ) ) ;
#162 = CARTESIAN_POINT ( 'NONE',  ( 1.326762908760390423E-13, 1.199999999999998845, 38.00000000000000000 ) ) ;
#163 = ADVANCED_FACE ( 'NONE', ( #83, #41 ), #62, .T. ) ;
#164 = DIRECTION ( 'NONE',  ( -3.491481338843133355E-15, 1.224646799147353207E-16, -1.000000000000000000 ) ) ;
#165 = EDGE_LOOP ( 'NONE', ( #90 ) ) ;
#166 = DIRECTION ( 'NONE',  ( 0.0000000000000000000, 1.000000000000000000, 0.0000000000000000000 ) ) ;
#167 = ORIENTED_EDGE ( 'NONE', *, *, #125, .F. ) ;
#168 = ADVANCED_FACE ( 'NONE', ( #139 ), #104, .F. ) ;
#169 = FACE_OUTER_BOUND ( 'NONE', #257, .T. ) ;
#170 = CC_DESIGN_DATE_AND_TIME_ASSIGNMENT ( #29, #282, ( #290 ) ) ;
#171 = APPROVAL_ROLE ( '' ) ;
#172 = DATE_AND_TIME ( #3, #113 ) ;
#173 = CIRCLE ( 'NONE', #266, 1.200000000000003286 ) ;
#174 = PRODUCT_DEFINITION ( 'UNKNOWN', '', #180, #79 ) ;
#175 = DIRECTION ( 'NONE',  ( 0.0000000000000000000, 1.000000000000000000, 0.0000000000000000000 ) ) ;
#176 = EDGE_CURVE ( 'NONE', #232, #232, #25, .T. ) ;
#177 = DIRECTION ( 'NONE',  ( 4.275831445896957731E-31, 1.000000000000000000, 1.224646799147353207E-16 ) ) ;
#178 = CARTESIAN_POINT ( 'NONE',  ( 1.316288464743861212E-13, -4.616918432785521081E-15, 37.69999999999999574 ) ) ;
#179 = CLOSED_SHELL ( 'NONE', ( #168, #226, #200, #10 ) ) ;
#180 = PRODUCT_DEFINITION_FORMATION_WITH_SPECIFIED_SOURCE ( 'ANY', '', #161, .NOT_KNOWN. ) ;
#181 = DIRECTION ( 'NONE',  ( 0.0000000000000000000, 1.000000000000000000, 0.0000000000000000000 ) ) ;
#182 = DIRECTION ( 'NONE',  ( 4.275831445896958607E-31, 1.000000000000000000, 1.224646799147353207E-16 ) ) ;
#183 = CC_DESIGN_DATE_AND_TIME_ASSIGNMENT ( #95, #74, ( #174 ) ) ;
#184 = FACE_OUTER_BOUND ( 'NONE', #231, .T. ) ;
#185 = ORIENTED_EDGE ( 'NONE', *, *, #22, .T. ) ;
#186 = FACE_BOUND ( 'NONE', #78, .T. ) ;
#187 =( LENGTH_UNIT ( ) NAMED_UNIT ( * ) SI_UNIT ( .MILLI., .METRE. ) );
#188 = EDGE_LOOP ( 'NONE', ( #18 ) ) ;
#189 = CARTESIAN_POINT ( 'NONE',  ( 5.691101207231110669E-14, -1.996169591262521320E-15, 16.29996169223920077 ) ) ;
#190 = CC_DESIGN_PERSON_AND_ORGANIZATION_ASSIGNMENT ( #193, #124, ( #180 ) ) ;
#191 = PERSON_AND_ORGANIZATION ( #153, #205 ) ;
#192 = EDGE_LOOP ( 'NONE', ( #7 ) ) ;
#193 = PERSON_AND_ORGANIZATION ( #153, #205 ) ;
#194 = CIRCLE ( 'NONE', #156, 0.4650000000000001354 ) ;
#195 = DIRECTION ( 'NONE',  ( -4.275831445896958607E-31, -1.000000000000000000, -1.224646799147353207E-16 ) ) ;
#196 = SHAPE_DEFINITION_REPRESENTATION ( #91, #270 ) ;
#197 = AXIS2_PLACEMENT_3D ( 'NONE', #203, #292, #136 ) ;
#198 = AXIS2_PLACEMENT_3D ( 'NONE', #269, #265, #38 ) ;
#199 = DIRECTION ( 'NONE',  ( -3.491481338843133355E-15, 1.224646799147353207E-16, -1.000000000000000000 ) ) ;
#200 = ADVANCED_FACE ( 'NONE', ( #264, #133 ), #56, .T. ) ;
#201 = DIRECTION ( 'NONE',  ( 4.275831445896958607E-31, 1.000000000000000000, 1.224646799147353207E-16 ) ) ;
#202 = DIRECTION ( 'NONE',  ( 4.275831445896958607E-31, 1.000000000000000000, 1.224646799147353207E-16 ) ) ;
#203 = CARTESIAN_POINT ( 'NONE',  ( 1.745740669421566678E-14, 3.486941494688811549E-33, 5.000000000000000000 ) ) ;
#204 = CARTESIAN_POINT ( 'NONE',  ( 6.982962677686266711E-16, -2.449293598294706229E-17, 0.1999999999999999833 ) ) ;
#205 = ORGANIZATION ( 'UNSPECIFIED', 'UNSPECIFIED', '' ) ;
#206 = DIRECTION ( 'NONE',  ( -3.491481338843133355E-15, 1.224646799147353207E-16, -1.000000000000000000 ) ) ;
#207 = DIRECTION ( 'NONE',  ( -4.141784826639221201E-31, -1.000000000000000000, -1.165808787618823186E-16 ) ) ;
#208 = ORIENTED_EDGE ( 'NONE', *, *, #149, .F. ) ;
#209 = CIRCLE ( 'NONE', #160, 0.4503844939755805021 ) ;
#210 = DIRECTION ( 'NONE',  ( -3.491481338843133355E-15, 1.224646799147353207E-16, -1.000000000000000000 ) ) ;
#211 = EDGE_LOOP ( 'NONE', ( #208 ) ) ;
#212 = APPROVAL_STATUS ( 'not_yet_approved' ) ;
#213 = AXIS2_PLACEMENT_3D ( 'NONE', #59, #158, #175 ) ;
#214 = LOCAL_TIME ( 11, 40, 11.00000000000000000, #123 ) ;
#215 = COORDINATED_UNIVERSAL_TIME_OFFSET ( 1, 0, .AHEAD. ) ;
#216 = EDGE_CURVE ( 'NONE', #233, #233, #271, .T. ) ;
#217 = PERSON_AND_ORGANIZATION ( #153, #205 ) ;
#218 = FACE_OUTER_BOUND ( 'NONE', #211, .T. ) ;
#219 = AXIS2_PLACEMENT_3D ( 'NONE', #252, #210, #44 ) ;
#220 = CARTESIAN_POINT ( 'NONE',  ( 1.745740669421566678E-14, -6.123233995736766282E-16, 5.000000000000000000 ) ) ;
#221 = CARTESIAN_POINT ( 'NONE',  ( 3.491481338843132724E-14, -1.224646799147353059E-15, 9.999999999999998224 ) ) ;
#222 = DIRECTION ( 'NONE',  ( 0.0000000000000000000, 1.000000000000000000, 0.0000000000000000000 ) ) ;
#223 = FACE_OUTER_BOUND ( 'NONE', #55, .T. ) ;
#224 = AXIS2_PLACEMENT_3D ( 'NONE', #131, #105, #201 ) ;
#225 = CC_DESIGN_APPROVAL ( #98, ( #180 ) ) ;
#226 = ADVANCED_FACE ( 'NONE', ( #186, #184 ), #145, .T. ) ;
#227 = DIRECTION ( 'NONE',  ( 3.491481338843133355E-15, -1.224646799147353207E-16, 1.000000000000000000 ) ) ;
#228 = APPROVAL ( #212, 'UNSPECIFIED' ) ;
#229 = ORIENTED_EDGE ( 'NONE', *, *, #216, .T. ) ;
#230 = AXIS2_PLACEMENT_3D ( 'NONE', #220, #199, #166 ) ;
#231 = EDGE_LOOP ( 'NONE', ( #48 ) ) ;
#232 = VERTEX_POINT ( 'NONE', #20 ) ;
#233 = VERTEX_POINT ( 'NONE', #119 ) ;
#234 = CIRCLE ( 'NONE', #248, 0.4200000000000002065 ) ;
#235 = DIRECTION ( 'NONE',  ( 0.0000000000000000000, 0.0000000000000000000, 1.000000000000000000 ) ) ;
#236 = EDGE_CURVE ( 'NONE', #300, #300, #8, .T. ) ;
#237 = CARTESIAN_POINT ( 'NONE',  ( 1.745740669421566678E-14, 3.486941494688811549E-33, 5.000000000000000000 ) ) ;
#238 = CARTESIAN_POINT ( 'NONE',  ( 1.745740669421566678E-14, -6.123233995736766282E-16, 5.000000000000000000 ) ) ;
#239 = ADVANCED_FACE ( 'NONE', ( #67, #141 ), #253, .T. ) ;
#240 = PERSON_AND_ORGANIZATION_ROLE ( 'classification_officer' ) ;
#241 = PLANE ( 'NONE',  #1 ) ;
#242 = DATE_AND_TIME ( #5, #138 ) ;
#243 = AXIS2_PLACEMENT_3D ( 'NONE', #142, #164, #23 ) ;
#244 = FACE_OUTER_BOUND ( 'NONE', #21, .T. ) ;
#245 = CARTESIAN_POINT ( 'NONE',  ( 0.0000000000000000000, 0.0000000000000000000, 0.0000000000000000000 ) ) ;
#246 = DIRECTION ( 'NONE',  ( -3.491481338843133355E-15, 1.224646799147353207E-16, -1.000000000000000000 ) ) ;
#247 = CARTESIAN_POINT ( 'NONE',  ( 1.772954073248064217E-14, -6.218685767222009416E-16, 5.077942286340601186 ) ) ;
#248 = AXIS2_PLACEMENT_3D ( 'NONE', #221, #32, #154 ) ;
#249 = VERTEX_POINT ( 'NONE', #250 ) ;
#250 = CARTESIAN_POINT ( 'NONE',  ( 1.316288464743861212E-13, 1.499999999999998668, 37.69999999999999574 ) ) ;
#251 = EDGE_LOOP ( 'NONE', ( #120 ) ) ;
#252 = CARTESIAN_POINT ( 'NONE',  ( 6.982962677686266711E-16, -2.449293598294706229E-17, 0.1999999999999999833 ) ) ;
#253 = CONICAL_SURFACE ( 'NONE', #243, 1.200000000000003286, 0.7853981633974453924 ) ;
#254 = CARTESIAN_POINT ( 'NONE',  ( 0.0000000000000000000, 0.0000000000000000000, 0.0000000000000000000 ) ) ;
#255 = EDGE_LOOP ( 'NONE', ( #280 ) ) ;
#256 = VERTEX_POINT ( 'NONE', #162 ) ;
#257 = EDGE_LOOP ( 'NONE', ( #118 ) ) ;
#258 = ORIENTED_EDGE ( 'NONE', *, *, #22, .F. ) ;
#259 = AXIS2_PLACEMENT_3D ( 'NONE', #143, #206, #111 ) ;
#260 = PRODUCT_RELATED_PRODUCT_CATEGORY ( 'detail', '', ( #161 ) ) ;
#261 = PERSON_AND_ORGANIZATION ( #153, #205 ) ;
#262 = APPROVAL_ROLE ( '' ) ;
#263 = DIRECTION ( 'NONE',  ( 3.491481338843133355E-15, -1.224646799147353207E-16, 1.000000000000000000 ) ) ;
#264 = FACE_OUTER_BOUND ( 'NONE', #255, .T. ) ;
#265 = DIRECTION ( 'NONE',  ( -3.491481338843133355E-15, 1.224646799147353207E-16, -1.000000000000000000 ) ) ;
#266 = AXIS2_PLACEMENT_3D ( 'NONE', #81, #246, #222 ) ;
#267 = FACE_OUTER_BOUND ( 'NONE', #165, .T. ) ;
#268 = ADVANCED_FACE ( 'NONE', ( #301, #71 ), #82, .T. ) ;
#269 = CARTESIAN_POINT ( 'NONE',  ( 5.691101207231110669E-14, -1.996169591262521320E-15, 16.29996169223920077 ) ) ;
#270 = ADVANCED_BREP_SHAPE_REPRESENTATION ( '327005', ( #72, #275, #75 ), #132 ) ;
#271 = CIRCLE ( 'NONE', #230, 0.4650000000000001354 ) ;
#272 = ORIENTED_EDGE ( 'NONE', *, *, #135, .F. ) ;
#273 = CYLINDRICAL_SURFACE ( 'NONE', #259, 1.500000000000000444 ) ;
#274 = EDGE_LOOP ( 'NONE', ( #46 ) ) ;
#275 = MANIFOLD_SOLID_BREP ( 'Corps-Déplacer/Copier1[2]', #179 ) ;
#276 = EDGE_LOOP ( 'NONE', ( #229 ) ) ;
#277 =( NAMED_UNIT ( * ) PLANE_ANGLE_UNIT ( ) SI_UNIT ( $, .RADIAN. ) );
#278 = ORIENTED_EDGE ( 'NONE', *, *, #135, .T. ) ;
#279 = VERTEX_POINT ( 'NONE', #117 ) ;
#280 = ORIENTED_EDGE ( 'NONE', *, *, #236, .F. ) ;
#281 = DATE_AND_TIME ( #148, #70 ) ;
#282 = DATE_TIME_ROLE ( 'classification_date' ) ;
#283 = CC_DESIGN_APPROVAL ( #122, ( #174 ) ) ;
#284 = ADVANCED_FACE ( 'NONE', ( #169, #19 ), #273, .T. ) ;
#285 = PERSON_AND_ORGANIZATION ( #153, #205 ) ;
#286 = APPROVAL_STATUS ( 'not_yet_approved' ) ;
#287 = CARTESIAN_POINT ( 'NONE',  ( 3.491481338843133355E-14, -1.301042606982605321E-15, 10.00000000000000000 ) ) ;
#288 = DIRECTION ( 'NONE',  ( -3.491481338843133355E-15, 1.224646799147353207E-16, -1.000000000000000000 ) ) ;
#289 = AXIS2_PLACEMENT_3D ( 'NONE', #109, #85, #182 ) ;
#290 = SECURITY_CLASSIFICATION ( '', '', #150 ) ;
#291 = DIRECTION ( 'NONE',  ( 4.275831445896958607E-31, 1.000000000000000000, 1.224646799147353207E-16 ) ) ;
#292 = DIRECTION ( 'NONE',  ( 3.491481338843133355E-15, -1.224646799147353207E-16, 1.000000000000000000 ) ) ;
#293 = CARTESIAN_POINT ( 'NONE',  ( -7.472655675412377817E-32, 2.621054780449229715E-33, -2.140253648867665497E-17 ) ) ;
#294 = VERTEX_POINT ( 'NONE', #63 ) ;
#295 = ORIENTED_EDGE ( 'NONE', *, *, #176, .F. ) ;
#296 = APPROVAL_PERSON_ORGANIZATION ( #285, #98, #262 ) ;
#297 = VERTEX_POINT ( 'NONE', #45 ) ;
#298 = ORIENTED_EDGE ( 'NONE', *, *, #52, .F. ) ;
#299 = UNCERTAINTY_MEASURE_WITH_UNIT (LENGTH_MEASURE( 1.000000000000000082E-05 ), #187, 'distance_accuracy_value', 'NONE');
#300 = VERTEX_POINT ( 'NONE', #43 ) ;
#301 = FACE_BOUND ( 'NONE', #87, .T. ) ;
#302 = EDGE_LOOP ( 'NONE', ( #167 ) ) ;
#303 = CC_DESIGN_PERSON_AND_ORGANIZATION_ASSIGNMENT ( #152, #26, ( #161 ) ) ;
ENDSEC;
END-ISO-10303-21;
