ISO-10303-21;
HEADER;
FILE_DESCRIPTION (( 'STEP AP203' ),
    '1' );
FILE_NAME ('327004.step',
    '2021-12-01T10:40:10',
    ( '' ),
    ( '' ),
    'SwSTEP 2.0',
    'SolidWorks 2019',
    '' );
FILE_SCHEMA (( 'CONFIG_CONTROL_DESIGN' ));
ENDSEC;

DATA;
#1 = DIRECTION ( 'NONE',  ( 0.0000000000000000000, 1.000000000000000000, 0.0000000000000000000 ) ) ;
#2 = CARTESIAN_POINT ( 'NONE',  ( 1.396592535537253342E-14, -4.898587196589412829E-16, 4.000000000000000000 ) ) ;
#3 = DIRECTION ( 'NONE',  ( 0.0000000000000000000, 1.000000000000000000, 0.0000000000000000000 ) ) ;
#4 = CYLINDRICAL_SURFACE ( 'NONE', #82, 1.500000000000000444 ) ;
#5 = CARTESIAN_POINT ( 'NONE',  ( 1.326762908760390423E-13, -4.653657836759941941E-15, 38.00000000000000000 ) ) ;
#6 = DIRECTION ( 'NONE',  ( 4.275831445896958607E-31, 1.000000000000000000, 1.224646799147353207E-16 ) ) ;
#7 = CARTESIAN_POINT ( 'NONE',  ( 2.793185071074506684E-14, -9.797174393178825657E-16, 8.000000000000000000 ) ) ;
#8 = DIRECTION ( 'NONE',  ( -3.491481338843133355E-15, 1.224646799147353207E-16, -1.000000000000000000 ) ) ;
#9 = EDGE_LOOP ( 'NONE', ( #123 ) ) ;
#10 = CLOSED_SHELL ( 'NONE', ( #100, #178, #228, #116 ) ) ;
#11 = EDGE_LOOP ( 'NONE', ( #274 ) ) ;
#12 = DATE_AND_TIME ( #293, #303 ) ;
#13 = FACE_OUTER_BOUND ( 'NONE', #95, .T. ) ;
#14 = APPROVAL_STATUS ( 'not_yet_approved' ) ;
#15 = PERSON_AND_ORGANIZATION_ROLE ( 'design_owner' ) ;
#16 = APPROVAL_ROLE ( '' ) ;
#17 = ORIENTED_EDGE ( 'NONE', *, *, #130, .F. ) ;
#18 = PERSON ( 'UNSPECIFIED', 'UNSPECIFIED', 'UNSPECIFIED', ('UNSPECIFIED'), ('UNSPECIFIED'), ('UNSPECIFIED') ) ;
#19 = UNCERTAINTY_MEASURE_WITH_UNIT (LENGTH_MEASURE( 1.000000000000000082E-05 ), #121, 'distance_accuracy_value', 'NONE');
#20 = ORGANIZATION ( 'UNSPECIFIED', 'UNSPECIFIED', '' ) ;
#21 = DIRECTION ( 'NONE',  ( 0.0000000000000000000, -1.000000000000000000, 0.0000000000000000000 ) ) ;
#22 = DIRECTION ( 'NONE',  ( 4.275831445896958607E-31, 1.000000000000000000, 1.224646799147353207E-16 ) ) ;
#23 = ADVANCED_FACE ( 'NONE', ( #243, #246 ), #302, .F. ) ;
#24 = FACE_OUTER_BOUND ( 'NONE', #9, .T. ) ;
#25 = AXIS2_PLACEMENT_3D ( 'NONE', #133, #258, #1 ) ;
#26 = DIRECTION ( 'NONE',  ( -3.491481338843133355E-15, 1.224646799147353207E-16, -1.000000000000000000 ) ) ;
#27 = LOCAL_TIME ( 11, 40, 10.00000000000000000, #210 ) ;
#28 = DIRECTION ( 'NONE',  ( -3.491481338843133355E-15, 1.224646799147353207E-16, -1.000000000000000000 ) ) ;
#29 = DIRECTION ( 'NONE',  ( -3.491481338843133355E-15, 1.224646799147353207E-16, -1.000000000000000000 ) ) ;
#30 = CARTESIAN_POINT ( 'NONE',  ( 1.396592535537253342E-14, 2.849543587057519123E-33, 4.000000000000000000 ) ) ;
#31 = DIRECTION ( 'NONE',  ( 3.491481338843133355E-15, -1.224646799147353207E-16, 1.000000000000000000 ) ) ;
#32 = AXIS2_PLACEMENT_3D ( 'NONE', #282, #71, #262 ) ;
#33 = AXIS2_PLACEMENT_3D ( 'NONE', #2, #86, #179 ) ;
#34 = FACE_OUTER_BOUND ( 'NONE', #289, .T. ) ;
#35 = EDGE_LOOP ( 'NONE', ( #42 ) ) ;
#36 = PERSON_AND_ORGANIZATION ( #18, #20 ) ;
#37 = DIRECTION ( 'NONE',  ( -3.491481338843133355E-15, 1.224646799147353207E-16, -1.000000000000000000 ) ) ;
#38 = SECURITY_CLASSIFICATION_LEVEL ( 'unclassified' ) ;
#39 = ORIENTED_EDGE ( 'NONE', *, *, #249, .F. ) ;
#40 = CIRCLE ( 'NONE', #151, 0.3799999999999992273 ) ;
#41 = PRODUCT_DEFINITION_FORMATION_WITH_SPECIFIED_SOURCE ( 'ANY', '', #62, .NOT_KNOWN. ) ;
#42 = ORIENTED_EDGE ( 'NONE', *, *, #183, .F. ) ;
#43 = AXIS2_PLACEMENT_3D ( 'NONE', #7, #26, #232 ) ;
#44 = CARTESIAN_POINT ( 'NONE',  ( 5.131413161946101430E-14, 1.499999999999995781, 14.69695141961246243 ) ) ;
#45 = ADVANCED_FACE ( 'NONE', ( #296, #147 ), #284, .T. ) ;
#46 = AXIS2_PLACEMENT_3D ( 'NONE', #169, #37, #152 ) ;
#47 = ORIENTED_EDGE ( 'NONE', *, *, #295, .F. ) ;
#48 = DIRECTION ( 'NONE',  ( 0.0000000000000000000, 1.000000000000000000, 0.0000000000000000000 ) ) ;
#49 = EDGE_LOOP ( 'NONE', ( #186 ) ) ;
#50 = PERSON_AND_ORGANIZATION_ROLE ( 'creator' ) ;
#51 = LOCAL_TIME ( 11, 40, 10.00000000000000000, #61 ) ;
#52 = PERSON_AND_ORGANIZATION_ROLE ( 'creator' ) ;
#53 = CALENDAR_DATE ( 2021, 1, 12 ) ;
#54 = EDGE_LOOP ( 'NONE', ( #170 ) ) ;
#55 = ORIENTED_EDGE ( 'NONE', *, *, #187, .F. ) ;
#56 = DATE_AND_TIME ( #79, #197 ) ;
#57 = ORIENTED_EDGE ( 'NONE', *, *, #132, .F. ) ;
#58 = CIRCLE ( 'NONE', #275, 1.500000000000003331 ) ;
#59 = APPROVAL ( #145, 'UNSPECIFIED' ) ;
#60 = CIRCLE ( 'NONE', #157, 0.3499999999999986455 ) ;
#61 = COORDINATED_UNIVERSAL_TIME_OFFSET ( 1, 0, .AHEAD. ) ;
#62 = PRODUCT ( '327004', '327004', '', ( #271 ) ) ;
#63 = AXIS2_PLACEMENT_3D ( 'NONE', #138, #91, #161 ) ;
#64 = FACE_OUTER_BOUND ( 'NONE', #192, .T. ) ;
#65 = APPROVAL ( #188, 'UNSPECIFIED' ) ;
#66 = DIRECTION ( 'NONE',  ( 3.491481338843133355E-15, -1.224646799147353207E-16, 1.000000000000000000 ) ) ;
#67 = DIRECTION ( 'NONE',  ( 4.275831445896958607E-31, 1.000000000000000000, 1.224646799147353207E-16 ) ) ;
#68 = AXIS2_PLACEMENT_3D ( 'NONE', #30, #148, #241 ) ;
#69 = DIRECTION ( 'NONE',  ( -3.491481338843133355E-15, 1.224646799147353207E-16, -1.000000000000000000 ) ) ;
#70 = DIRECTION ( 'NONE',  ( 4.275831445896958607E-31, 1.000000000000000000, 1.224646799147353207E-16 ) ) ;
#71 = DIRECTION ( 'NONE',  ( -3.491481338843133355E-15, 1.224646799147353207E-16, -1.000000000000000000 ) ) ;
#72 = CARTESIAN_POINT ( 'NONE',  ( 2.793185071074506684E-14, 0.3499999999999983125, 8.000000000000000000 ) ) ;
#73 = APPROVAL_PERSON_ORGANIZATION ( #222, #65, #149 ) ;
#74 = CALENDAR_DATE ( 2021, 1, 12 ) ;
#75 = DIRECTION ( 'NONE',  ( 4.275831445896958607E-31, 1.000000000000000000, 1.224646799147353207E-16 ) ) ;
#76 = AXIS2_PLACEMENT_3D ( 'NONE', #5, #233, #276 ) ;
#77 = CALENDAR_DATE ( 2021, 1, 12 ) ;
#78 = EDGE_LOOP ( 'NONE', ( #172 ) ) ;
#79 = CALENDAR_DATE ( 2021, 1, 12 ) ;
#80 = EDGE_LOOP ( 'NONE', ( #93 ) ) ;
#81 = APPLICATION_PROTOCOL_DEFINITION ( 'international standard', 'config_control_design', 1994, #299 ) ;
#82 = AXIS2_PLACEMENT_3D ( 'NONE', #175, #29, #6 ) ;
#83 = CARTESIAN_POINT ( 'NONE',  ( 1.396592535537253342E-14, 0.3799999999999991718, 4.000000000000000000 ) ) ;
#84 = CC_DESIGN_PERSON_AND_ORGANIZATION_ASSIGNMENT ( #125, #240, ( #225 ) ) ;
#85 = ADVANCED_FACE ( 'NONE', ( #181, #164 ), #87, .T. ) ;
#86 = DIRECTION ( 'NONE',  ( -3.491481338843133355E-15, 1.224646799147353207E-16, -1.000000000000000000 ) ) ;
#87 = CYLINDRICAL_SURFACE ( 'NONE', #234, 0.3499999999999989786 ) ;
#88 = AXIS2_PLACEMENT_3D ( 'NONE', #140, #237, #3 ) ;
#89 = PLANE ( 'NONE',  #32 ) ;
#90 = CARTESIAN_POINT ( 'NONE',  ( 1.414734804754918841E-14, 0.3499999999999981459, 4.051961524227068345 ) ) ;
#91 = DIRECTION ( 'NONE',  ( -3.491481338843133355E-15, 1.224646799147353207E-16, -1.000000000000000000 ) ) ;
#92 = DIRECTION ( 'NONE',  ( 3.801177521816920404E-31, 1.000000000000000000, 1.069936354426486760E-16 ) ) ;
#93 = ORIENTED_EDGE ( 'NONE', *, *, #249, .T. ) ;
#94 = PLANE ( 'NONE',  #117 ) ;
#95 = EDGE_LOOP ( 'NONE', ( #139 ) ) ;
#96 = EDGE_CURVE ( 'NONE', #129, #129, #220, .T. ) ;
#97 = DIRECTION ( 'NONE',  ( 0.0000000000000000000, 0.0000000000000000000, 1.000000000000000000 ) ) ;
#98 = ORIENTED_EDGE ( 'NONE', *, *, #130, .T. ) ;
#99 = AXIS2_PLACEMENT_3D ( 'NONE', #256, #206, #110 ) ;
#100 = ADVANCED_FACE ( 'NONE', ( #24 ), #158, .F. ) ;
#101 = COORDINATED_UNIVERSAL_TIME_OFFSET ( 1, 0, .AHEAD. ) ;
#102 = COORDINATED_UNIVERSAL_TIME_OFFSET ( 1, 0, .AHEAD. ) ;
#103 = VERTEX_POINT ( 'NONE', #83 ) ;
#104 = VERTEX_POINT ( 'NONE', #242 ) ;
#105 = ADVANCED_BREP_SHAPE_REPRESENTATION ( '327004', ( #281, #277, #298 ), #279 ) ;
#106 = PRODUCT_DEFINITION_SHAPE ( 'NONE', 'NONE',  #118 ) ;
#107 = CC_DESIGN_APPROVAL ( #177, ( #225 ) ) ;
#108 = CC_DESIGN_DATE_AND_TIME_ASSIGNMENT ( #127, #124, ( #118 ) ) ;
#109 = FACE_OUTER_BOUND ( 'NONE', #211, .T. ) ;
#110 = DIRECTION ( 'NONE',  ( -4.275831445896958607E-31, -1.000000000000000000, -1.224646799147353207E-16 ) ) ;
#111 = CIRCLE ( 'NONE', #25, 1.200000000000003286 ) ;
#112 = CARTESIAN_POINT ( 'NONE',  ( 1.414734804754918841E-14, -4.962221710912909566E-16, 4.051961524227068345 ) ) ;
#113 = ADVANCED_FACE ( 'NONE', ( #109 ), #89, .F. ) ;
#114 = CARTESIAN_POINT ( 'NONE',  ( 1.396592535537253342E-14, 2.849543587057519123E-33, 4.000000000000000000 ) ) ;
#115 = EDGE_LOOP ( 'NONE', ( #235 ) ) ;
#116 = ADVANCED_FACE ( 'NONE', ( #34 ), #94, .T. ) ;
#117 = AXIS2_PLACEMENT_3D ( 'NONE', #114, #31, #207 ) ;
#118 = PRODUCT_DEFINITION ( 'UNKNOWN', '', #41, #212 ) ;
#119 = EDGE_LOOP ( 'NONE', ( #268 ) ) ;
#120 = PERSON_AND_ORGANIZATION ( #18, #20 ) ;
#121 =( LENGTH_UNIT ( ) NAMED_UNIT ( * ) SI_UNIT ( .MILLI., .METRE. ) );
#122 = FACE_OUTER_BOUND ( 'NONE', #167, .T. ) ;
#123 = ORIENTED_EDGE ( 'NONE', *, *, #96, .T. ) ;
#124 = DATE_TIME_ROLE ( 'creation_date' ) ;
#125 = PERSON_AND_ORGANIZATION ( #18, #20 ) ;
#126 = CONICAL_SURFACE ( 'NONE', #76, 1.200000000000003286, 0.7853981633974453924 ) ;
#127 = DATE_AND_TIME ( #74, #27 ) ;
#128 = VERTEX_POINT ( 'NONE', #155 ) ;
#129 = VERTEX_POINT ( 'NONE', #224 ) ;
#130 = EDGE_CURVE ( 'NONE', #104, #104, #40, .T. ) ;
#131 = CC_DESIGN_PERSON_AND_ORGANIZATION_ASSIGNMENT ( #287, #50, ( #118 ) ) ;
#132 = EDGE_CURVE ( 'NONE', #171, #171, #58, .T. ) ;
#133 = CARTESIAN_POINT ( 'NONE',  ( 1.326762908760390423E-13, -4.653657836759941941E-15, 38.00000000000000000 ) ) ;
#134 = FACE_BOUND ( 'NONE', #119, .T. ) ;
#135 = FACE_OUTER_BOUND ( 'NONE', #216, .T. ) ;
#136 = PRODUCT_RELATED_PRODUCT_CATEGORY ( 'detail', '', ( #62 ) ) ;
#137 = CIRCLE ( 'NONE', #63, 0.3799999999999996159 ) ;
#138 = CARTESIAN_POINT ( 'NONE',  ( 1.396592535537253342E-14, -4.898587196589412829E-16, 4.000000000000000000 ) ) ;
#139 = ORIENTED_EDGE ( 'NONE', *, *, #295, .T. ) ;
#140 = CARTESIAN_POINT ( 'NONE',  ( 2.914442945444142440E-14, -1.022248976309396081E-15, 8.347296355333845952 ) ) ;
#141 = DIRECTION ( 'NONE',  ( 1.000000000000000000, 0.0000000000000000000, 0.0000000000000000000 ) ) ;
#142 = AXIS2_PLACEMENT_3D ( 'NONE', #221, #291, #75 ) ;
#143 = CIRCLE ( 'NONE', #88, 0.3803844939755803289 ) ;
#144 = DATE_AND_TIME ( #53, #209 ) ;
#145 = APPROVAL_STATUS ( 'not_yet_approved' ) ;
#146 = EDGE_LOOP ( 'NONE', ( #39 ) ) ;
#147 = FACE_BOUND ( 'NONE', #80, .T. ) ;
#148 = DIRECTION ( 'NONE',  ( 3.491481338843133355E-15, -1.224646799147353207E-16, 1.000000000000000000 ) ) ;
#149 = APPROVAL_ROLE ( '' ) ;
#150 = ORIENTED_EDGE ( 'NONE', *, *, #96, .F. ) ;
#151 = AXIS2_PLACEMENT_3D ( 'NONE', #286, #8, #92 ) ;
#152 = DIRECTION ( 'NONE',  ( 0.0000000000000000000, 1.000000000000000000, 0.0000000000000000000 ) ) ;
#153 = DIRECTION ( 'NONE',  ( -3.491481338843133355E-15, 1.224646799147353207E-16, -1.000000000000000000 ) ) ;
#154 = FACE_OUTER_BOUND ( 'NONE', #11, .T. ) ;
#155 = CARTESIAN_POINT ( 'NONE',  ( 2.914442945444142440E-14, 0.3803844939755792742, 8.347296355333845952 ) ) ;
#156 = CLOSED_SHELL ( 'NONE', ( #223, #45, #85, #23, #301, #196, #260, #113 ) ) ;
#157 = AXIS2_PLACEMENT_3D ( 'NONE', #112, #264, #48 ) ;
#158 = PLANE ( 'NONE',  #99 ) ;
#159 = FACE_BOUND ( 'NONE', #174, .T. ) ;
#160 = CC_DESIGN_PERSON_AND_ORGANIZATION_ASSIGNMENT ( #247, #52, ( #41 ) ) ;
#161 = DIRECTION ( 'NONE',  ( 0.0000000000000000000, 1.000000000000000000, 0.0000000000000000000 ) ) ;
#162 = CC_DESIGN_APPROVAL ( #59, ( #41 ) ) ;
#163 = CC_DESIGN_PERSON_AND_ORGANIZATION_ASSIGNMENT ( #36, #15, ( #62 ) ) ;
#164 = FACE_OUTER_BOUND ( 'NONE', #115, .T. ) ;
#165 = CARTESIAN_POINT ( 'NONE',  ( 1.316288464743861212E-13, 1.499999999999998668, 37.69999999999999574 ) ) ;
#166 = APPROVAL_ROLE ( '' ) ;
#167 = EDGE_LOOP ( 'NONE', ( #17 ) ) ;
#168 = CC_DESIGN_SECURITY_CLASSIFICATION ( #225, ( #41 ) ) ;
#169 = CARTESIAN_POINT ( 'NONE',  ( 1.414734804754918841E-14, -4.962221710912909566E-16, 4.051961524227068345 ) ) ;
#170 = ORIENTED_EDGE ( 'NONE', *, *, #132, .T. ) ;
#171 = VERTEX_POINT ( 'NONE', #165 ) ;
#172 = ORIENTED_EDGE ( 'NONE', *, *, #187, .T. ) ;
#173 = PERSON_AND_ORGANIZATION ( #18, #20 ) ;
#174 = EDGE_LOOP ( 'NONE', ( #150 ) ) ;
#175 = CARTESIAN_POINT ( 'NONE',  ( 0.0000000000000000000, 0.0000000000000000000, 0.0000000000000000000 ) ) ;
#176 = CIRCLE ( 'NONE', #278, 1.499999999999997335 ) ;
#177 = APPROVAL ( #14, 'UNSPECIFIED' ) ;
#178 = ADVANCED_FACE ( 'NONE', ( #159, #135 ), #297, .T. ) ;
#179 = DIRECTION ( 'NONE',  ( 0.0000000000000000000, 1.000000000000000000, 0.0000000000000000000 ) ) ;
#180 = CARTESIAN_POINT ( 'NONE',  ( 1.396592535537253342E-14, 0.3799999999999991718, 4.000000000000000000 ) ) ;
#181 = FACE_OUTER_BOUND ( 'NONE', #146, .T. ) ;
#182 = CARTESIAN_POINT ( 'NONE',  ( 0.0000000000000000000, 0.0000000000000000000, 0.0000000000000000000 ) ) ;
#183 = EDGE_CURVE ( 'NONE', #266, #266, #137, .T. ) ;
#184 = CARTESIAN_POINT ( 'NONE',  ( 1.316288464743861212E-13, -4.616918432785521081E-15, 37.69999999999999574 ) ) ;
#185 = PERSON_AND_ORGANIZATION ( #18, #20 ) ;
#186 = ORIENTED_EDGE ( 'NONE', *, *, #238, .F. ) ;
#187 = EDGE_CURVE ( 'NONE', #239, #239, #111, .T. ) ;
#188 = APPROVAL_STATUS ( 'not_yet_approved' ) ;
#189 = CIRCLE ( 'NONE', #33, 0.3799999999999996159 ) ;
#190 = APPROVAL_DATE_TIME ( #12, #59 ) ;
#191 = CARTESIAN_POINT ( 'NONE',  ( 5.131413161946101430E-14, -1.799857451325255249E-15, 14.69695141961246243 ) ) ;
#192 = EDGE_LOOP ( 'NONE', ( #265 ) ) ;
#193 = DATE_AND_TIME ( #77, #51 ) ;
#194 = PLANE ( 'NONE',  #68 ) ;
#195 = CC_DESIGN_APPROVAL ( #65, ( #118 ) ) ;
#196 = ADVANCED_FACE ( 'NONE', ( #200, #261 ), #4, .T. ) ;
#197 = LOCAL_TIME ( 11, 40, 10.00000000000000000, #217 ) ;
#198 = DIRECTION ( 'NONE',  ( 0.0000000000000000000, 1.000000000000000000, 0.0000000000000000000 ) ) ;
#199 = CC_DESIGN_DATE_AND_TIME_ASSIGNMENT ( #56, #290, ( #225 ) ) ;
#200 = FACE_OUTER_BOUND ( 'NONE', #49, .T. ) ;
#201 = VERTEX_POINT ( 'NONE', #90 ) ;
#202 = AXIS2_PLACEMENT_3D ( 'NONE', #219, #153, #70 ) ;
#203 = CARTESIAN_POINT ( 'NONE',  ( 3.491481338843131876E-16, -1.224646799147352653E-17, 0.09999999999999995004 ) ) ;
#204 = VERTEX_POINT ( 'NONE', #72 ) ;
#205 = FACE_BOUND ( 'NONE', #78, .T. ) ;
#206 = DIRECTION ( 'NONE',  ( 3.491481338843133355E-15, -1.224646799147353207E-16, 1.000000000000000000 ) ) ;
#207 = DIRECTION ( 'NONE',  ( -4.275831445896958607E-31, -1.000000000000000000, -1.224646799147353207E-16 ) ) ;
#208 = EDGE_LOOP ( 'NONE', ( #57 ) ) ;
#209 = LOCAL_TIME ( 11, 40, 10.00000000000000000, #102 ) ;
#210 = COORDINATED_UNIVERSAL_TIME_OFFSET ( 1, 0, .AHEAD. ) ;
#211 = EDGE_LOOP ( 'NONE', ( #55 ) ) ;
#212 = DESIGN_CONTEXT ( 'detailed design', #299, 'design' ) ;
#213 = CARTESIAN_POINT ( 'NONE',  ( 1.326762908760390423E-13, 1.199999999999998845, 38.00000000000000000 ) ) ;
#214 = APPLICATION_PROTOCOL_DEFINITION ( 'international standard', 'config_control_design', 1994, #257 ) ;
#215 = CYLINDRICAL_SURFACE ( 'NONE', #142, 0.3799999999999994493 ) ;
#216 = EDGE_LOOP ( 'NONE', ( #98 ) ) ;
#217 = COORDINATED_UNIVERSAL_TIME_OFFSET ( 1, 0, .AHEAD. ) ;
#218 = DIRECTION ( 'NONE',  ( -3.491481338843133355E-15, 1.224646799147353207E-16, -1.000000000000000000 ) ) ;
#219 = CARTESIAN_POINT ( 'NONE',  ( 2.793185071074506684E-14, -8.673617379884035472E-16, 8.000000000000000000 ) ) ;
#220 = CIRCLE ( 'NONE', #255, 0.3222649730810375202 ) ;
#221 = CARTESIAN_POINT ( 'NONE',  ( 0.0000000000000000000, 0.0000000000000000000, 0.0000000000000000000 ) ) ;
#222 = PERSON_AND_ORGANIZATION ( #18, #20 ) ;
#223 = ADVANCED_FACE ( 'NONE', ( #154 ), #194, .F. ) ;
#224 = CARTESIAN_POINT ( 'NONE',  ( -1.892735826383161137E-31, 0.3222649730810375202, -5.421010862427522170E-17 ) ) ;
#225 = SECURITY_CLASSIFICATION ( '', '', #38 ) ;
#226 = CC_DESIGN_PERSON_AND_ORGANIZATION_ASSIGNMENT ( #185, #294, ( #41 ) ) ;
#227 = DIRECTION ( 'NONE',  ( 3.491481338843133355E-15, -1.224646799147353207E-16, 1.000000000000000000 ) ) ;
#228 = ADVANCED_FACE ( 'NONE', ( #122, #13 ), #215, .T. ) ;
#229 = CARTESIAN_POINT ( 'NONE',  ( 0.0000000000000000000, 0.0000000000000000000, 0.0000000000000000000 ) ) ;
#230 = AXIS2_PLACEMENT_3D ( 'NONE', #191, #227, #21 ) ;
#231 =( NAMED_UNIT ( * ) PLANE_ANGLE_UNIT ( ) SI_UNIT ( $, .RADIAN. ) );
#232 = DIRECTION ( 'NONE',  ( 0.0000000000000000000, 1.000000000000000000, 0.0000000000000000000 ) ) ;
#233 = DIRECTION ( 'NONE',  ( -3.491481338843133355E-15, 1.224646799147353207E-16, -1.000000000000000000 ) ) ;
#234 = AXIS2_PLACEMENT_3D ( 'NONE', #229, #28, #67 ) ;
#235 = ORIENTED_EDGE ( 'NONE', *, *, #248, .T. ) ;
#236 = SHAPE_DEFINITION_REPRESENTATION ( #106, #105 ) ;
#237 = DIRECTION ( 'NONE',  ( -3.491481338843133355E-15, 1.224646799147353207E-16, -1.000000000000000000 ) ) ;
#238 = EDGE_CURVE ( 'NONE', #285, #285, #176, .T. ) ;
#239 = VERTEX_POINT ( 'NONE', #213 ) ;
#240 = PERSON_AND_ORGANIZATION_ROLE ( 'classification_officer' ) ;
#241 = DIRECTION ( 'NONE',  ( -4.275831445896958607E-31, -1.000000000000000000, -1.224646799147353207E-16 ) ) ;
#242 = CARTESIAN_POINT ( 'NONE',  ( 3.491481338843133355E-16, 0.3799999999999992273, 0.09999999999999999167 ) ) ;
#243 = FACE_OUTER_BOUND ( 'NONE', #251, .T. ) ;
#244 = APPROVAL_DATE_TIME ( #144, #65 ) ;
#245 = CARTESIAN_POINT ( 'NONE',  ( 5.131413161946101430E-14, -1.799857451325255249E-15, 14.69695141961246243 ) ) ;
#246 = FACE_OUTER_BOUND ( 'NONE', #263, .T. ) ;
#247 = PERSON_AND_ORGANIZATION ( #18, #20 ) ;
#248 = EDGE_CURVE ( 'NONE', #204, #204, #292, .T. ) ;
#249 = EDGE_CURVE ( 'NONE', #201, #201, #60, .T. ) ;
#250 = CONICAL_SURFACE ( 'NONE', #230, 1.499999999999997335, 0.1745329251994260089 ) ;
#251 = EDGE_LOOP ( 'NONE', ( #270 ) ) ;
#252 = AXIS2_PLACEMENT_3D ( 'NONE', #203, #66, #283 ) ;
#253 = APPROVAL_PERSON_ORGANIZATION ( #120, #59, #16 ) ;
#254 = EDGE_CURVE ( 'NONE', #128, #128, #143, .T. ) ;
#255 = AXIS2_PLACEMENT_3D ( 'NONE', #280, #69, #22 ) ;
#256 = CARTESIAN_POINT ( 'NONE',  ( -1.635343266097099213E-31, 5.736012030345179750E-33, -4.683809270018764053E-17 ) ) ;
#257 = APPLICATION_CONTEXT ( 'configuration controlled 3d designs of mechanical parts and assemblies' ) ;
#258 = DIRECTION ( 'NONE',  ( -3.491481338843133355E-15, 1.224646799147353207E-16, -1.000000000000000000 ) ) ;
#259 = FACE_OUTER_BOUND ( 'NONE', #208, .T. ) ;
#260 = ADVANCED_FACE ( 'NONE', ( #259, #205 ), #126, .T. ) ;
#261 = FACE_OUTER_BOUND ( 'NONE', #54, .T. ) ;
#262 = DIRECTION ( 'NONE',  ( 4.275831445896958607E-31, 1.000000000000000000, 1.224646799147353207E-16 ) ) ;
#263 = EDGE_LOOP ( 'NONE', ( #267 ) ) ;
#264 = DIRECTION ( 'NONE',  ( -3.491481338843133355E-15, 1.224646799147353207E-16, -1.000000000000000000 ) ) ;
#265 = ORIENTED_EDGE ( 'NONE', *, *, #238, .T. ) ;
#266 = VERTEX_POINT ( 'NONE', #180 ) ;
#267 = ORIENTED_EDGE ( 'NONE', *, *, #254, .T. ) ;
#268 = ORIENTED_EDGE ( 'NONE', *, *, #254, .F. ) ;
#269 = APPROVAL_PERSON_ORGANIZATION ( #173, #177, #166 ) ;
#270 = ORIENTED_EDGE ( 'NONE', *, *, #248, .F. ) ;
#271 = MECHANICAL_CONTEXT ( 'NONE', #257, 'mechanical' ) ;
#272 = DIRECTION ( 'NONE',  ( 0.0000000000000000000, 1.000000000000000000, 0.0000000000000000000 ) ) ;
#273 = APPROVAL_DATE_TIME ( #193, #177 ) ;
#274 = ORIENTED_EDGE ( 'NONE', *, *, #183, .T. ) ;
#275 = AXIS2_PLACEMENT_3D ( 'NONE', #184, #288, #198 ) ;
#276 = DIRECTION ( 'NONE',  ( 0.0000000000000000000, 1.000000000000000000, 0.0000000000000000000 ) ) ;
#277 = MANIFOLD_SOLID_BREP ( 'Corps-Déplacer/Copier1[2]', #10 ) ;
#278 = AXIS2_PLACEMENT_3D ( 'NONE', #245, #218, #272 ) ;
#279 =( GEOMETRIC_REPRESENTATION_CONTEXT ( 3 ) GLOBAL_UNCERTAINTY_ASSIGNED_CONTEXT ( ( #19 ) ) GLOBAL_UNIT_ASSIGNED_CONTEXT ( ( #121, #231, #300 ) ) REPRESENTATION_CONTEXT ( 'NONE', 'WORKASPACE' ) );
#280 = CARTESIAN_POINT ( 'NONE',  ( -3.270686532194198426E-31, 1.147202406069035950E-32, -9.367618540037528107E-17 ) ) ;
#281 = MANIFOLD_SOLID_BREP ( 'Corps-Déplacer/Copier1[1]', #156 ) ;
#282 = CARTESIAN_POINT ( 'NONE',  ( 1.326762908760390423E-13, 8.998558695971103225E-33, 38.00000000000000000 ) ) ;
#283 = DIRECTION ( 'NONE',  ( -3.801177521816920404E-31, -1.000000000000000000, -1.069936354426486760E-16 ) ) ;
#284 = CONICAL_SURFACE ( 'NONE', #46, 0.3499999999999986455, 0.5235987755982947078 ) ;
#285 = VERTEX_POINT ( 'NONE', #44 ) ;
#286 = CARTESIAN_POINT ( 'NONE',  ( 3.491481338843131876E-16, -1.224646799147352653E-17, 0.09999999999999995004 ) ) ;
#287 = PERSON_AND_ORGANIZATION ( #18, #20 ) ;
#288 = DIRECTION ( 'NONE',  ( -3.491481338843133355E-15, 1.224646799147353207E-16, -1.000000000000000000 ) ) ;
#289 = EDGE_LOOP ( 'NONE', ( #47 ) ) ;
#290 = DATE_TIME_ROLE ( 'classification_date' ) ;
#291 = DIRECTION ( 'NONE',  ( -3.491481338843133355E-15, 1.224646799147353207E-16, -1.000000000000000000 ) ) ;
#292 = CIRCLE ( 'NONE', #43, 0.3499999999999993117 ) ;
#293 = CALENDAR_DATE ( 2021, 1, 12 ) ;
#294 = PERSON_AND_ORGANIZATION_ROLE ( 'design_supplier' ) ;
#295 = EDGE_CURVE ( 'NONE', #103, #103, #189, .T. ) ;
#296 = FACE_OUTER_BOUND ( 'NONE', #35, .T. ) ;
#297 = CONICAL_SURFACE ( 'NONE', #252, 0.3799999999999992273, 0.5235987755982920433 ) ;
#298 = AXIS2_PLACEMENT_3D ( 'NONE', #182, #97, #141 ) ;
#299 = APPLICATION_CONTEXT ( 'configuration controlled 3d designs of mechanical parts and assemblies' ) ;
#300 =( NAMED_UNIT ( * ) SI_UNIT ( $, .STERADIAN. ) SOLID_ANGLE_UNIT ( ) );
#301 = ADVANCED_FACE ( 'NONE', ( #134, #64 ), #250, .T. ) ;
#302 = TOROIDAL_SURFACE ( 'NONE', #202, 2.349999999999999201, 2.000000000000000444 ) ;
#303 = LOCAL_TIME ( 11, 40, 10.00000000000000000, #101 ) ;
ENDSEC;
END-ISO-10303-21;
