ISO-10303-21;
HEADER;
FILE_DESCRIPTION (( 'STEP AP203' ),
    '1' );
FILE_NAME ('327003.step',
    '2021-12-01T07:27:26',
    ( '' ),
    ( '' ),
    'SwSTEP 2.0',
    'SolidWorks 2019',
    '' );
FILE_SCHEMA (( 'CONFIG_CONTROL_DESIGN' ));
ENDSEC;

DATA;
#1 = ADVANCED_FACE ( 'NONE', ( #235, #40 ), #127, .T. ) ;
#2 = VERTEX_POINT ( 'NONE', #85 ) ;
#3 = DIRECTION ( 'NONE',  ( 0.0000000000000000000, 1.000000000000000000, 0.0000000000000000000 ) ) ;
#4 = VERTEX_POINT ( 'NONE', #257 ) ;
#5 = EDGE_CURVE ( 'NONE', #156, #156, #222, .T. ) ;
#6 = CC_DESIGN_APPROVAL ( #200, ( #121 ) ) ;
#7 = CALENDAR_DATE ( 2021, 1, 12 ) ;
#8 = AXIS2_PLACEMENT_3D ( 'NONE', #259, #112, #107 ) ;
#9 = CC_DESIGN_PERSON_AND_ORGANIZATION_ASSIGNMENT ( #182, #92, ( #14 ) ) ;
#10 = PERSON_AND_ORGANIZATION ( #277, #154 ) ;
#11 = PERSON_AND_ORGANIZATION ( #277, #154 ) ;
#12 = FACE_BOUND ( 'NONE', #253, .T. ) ;
#13 = UNCERTAINTY_MEASURE_WITH_UNIT (LENGTH_MEASURE( 1.000000000000000082E-05 ), #219, 'distance_accuracy_value', 'NONE');
#14 = PRODUCT ( '327003', '327003', '', ( #203 ) ) ;
#15 = EDGE_LOOP ( 'NONE', ( #102 ) ) ;
#16 = CARTESIAN_POINT ( 'NONE',  ( 1.396592535537253342E-14, 2.737061603357879666E-33, 4.000000000000000000 ) ) ;
#17 = EDGE_LOOP ( 'NONE', ( #230 ) ) ;
#18 = DIRECTION ( 'NONE',  ( -3.957390296686111206E-31, -1.000000000000000000, -1.113906341594699190E-16 ) ) ;
#19 = CARTESIAN_POINT ( 'NONE',  ( 1.316288464743861212E-13, -4.616918432785521081E-15, 37.69999999999999574 ) ) ;
#20 = CC_DESIGN_PERSON_AND_ORGANIZATION_ASSIGNMENT ( #226, #144, ( #178 ) ) ;
#21 = CARTESIAN_POINT ( 'NONE',  ( 3.491481338843134341E-16, 0.3649999999999991029, 0.1000000000000000194 ) ) ;
#22 = EDGE_CURVE ( 'NONE', #130, #130, #264, .T. ) ;
#23 = AXIS2_PLACEMENT_3D ( 'NONE', #109, #220, #60 ) ;
#24 = DIRECTION ( 'NONE',  ( -3.491481338843133355E-15, 1.224646799147353207E-16, -1.000000000000000000 ) ) ;
#25 = DIRECTION ( 'NONE',  ( -3.491481338843133355E-15, 1.224646799147353207E-16, -1.000000000000000000 ) ) ;
#26 = CARTESIAN_POINT ( 'NONE',  ( 2.793185071074506684E-14, -8.673617379884035472E-16, 8.000000000000000000 ) ) ;
#27 = TOROIDAL_SURFACE ( 'NONE', #113, 2.364999999999999769, 2.000000000000000000 ) ;
#28 = CALENDAR_DATE ( 2021, 1, 12 ) ;
#29 = APPROVAL_ROLE ( '' ) ;
#30 = PERSON_AND_ORGANIZATION ( #277, #154 ) ;
#31 = APPROVAL_STATUS ( 'not_yet_approved' ) ;
#32 = COORDINATED_UNIVERSAL_TIME_OFFSET ( 1, 0, .AHEAD. ) ;
#33 = ADVANCED_FACE ( 'NONE', ( #179, #196 ), #66, .T. ) ;
#34 = ORIENTED_EDGE ( 'NONE', *, *, #50, .T. ) ;
#35 = APPROVAL_PERSON_ORGANIZATION ( #74, #43, #244 ) ;
#36 = DIRECTION ( 'NONE',  ( 0.0000000000000000000, 1.000000000000000000, 0.0000000000000000000 ) ) ;
#37 = ORIENTED_EDGE ( 'NONE', *, *, #215, .T. ) ;
#38 = PLANE ( 'NONE',  #251 ) ;
#39 = ADVANCED_FACE ( 'NONE', ( #80, #135 ), #217, .T. ) ;
#40 = FACE_OUTER_BOUND ( 'NONE', #146, .T. ) ;
#41 = CIRCLE ( 'NONE', #55, 0.3953844939755814525 ) ;
#42 = DIRECTION ( 'NONE',  ( 0.0000000000000000000, 1.000000000000000000, 0.0000000000000000000 ) ) ;
#43 = APPROVAL ( #136, 'UNSPECIFIED' ) ;
#44 = CARTESIAN_POINT ( 'NONE',  ( 5.101711399985324237E-14, 1.499999999999995559, 14.61188219231818763 ) ) ;
#45 = DIRECTION ( 'NONE',  ( -3.491481338843133355E-15, 1.224646799147353207E-16, -1.000000000000000000 ) ) ;
#46 = FACE_OUTER_BOUND ( 'NONE', #234, .T. ) ;
#47 = CALENDAR_DATE ( 2021, 1, 12 ) ;
#48 = APPLICATION_CONTEXT ( 'configuration controlled 3d designs of mechanical parts and assemblies' ) ;
#49 = EDGE_CURVE ( 'NONE', #256, #256, #245, .T. ) ;
#50 = EDGE_CURVE ( 'NONE', #162, #162, #41, .T. ) ;
#51 = CONICAL_SURFACE ( 'NONE', #212, 1.499999999999997113, 0.1745329251994260367 ) ;
#52 = ORIENTED_EDGE ( 'NONE', *, *, #50, .F. ) ;
#53 = EDGE_LOOP ( 'NONE', ( #207 ) ) ;
#54 = CARTESIAN_POINT ( 'NONE',  ( 3.491481338843132862E-16, -1.224646799147352961E-17, 0.09999999999999997780 ) ) ;
#55 = AXIS2_PLACEMENT_3D ( 'NONE', #239, #45, #3 ) ;
#56 = DIRECTION ( 'NONE',  ( -4.275831445896958607E-31, -1.000000000000000000, -1.224646799147353207E-16 ) ) ;
#57 = ADVANCED_FACE ( 'NONE', ( #46 ), #38, .F. ) ;
#58 = ORIENTED_EDGE ( 'NONE', *, *, #5, .F. ) ;
#59 = DIRECTION ( 'NONE',  ( -3.491481338843133355E-15, 1.224646799147353207E-16, -1.000000000000000000 ) ) ;
#60 = DIRECTION ( 'NONE',  ( 4.275831445896958607E-31, 1.000000000000000000, 1.224646799147353207E-16 ) ) ;
#61 = CARTESIAN_POINT ( 'NONE',  ( 1.396592535537253342E-14, -4.898587196589412829E-16, 4.000000000000000000 ) ) ;
#62 = VERTEX_POINT ( 'NONE', #21 ) ;
#63 = CIRCLE ( 'NONE', #213, 1.200000000000003286 ) ;
#64 = EDGE_CURVE ( 'NONE', #2, #2, #201, .T. ) ;
#65 = DIRECTION ( 'NONE',  ( -3.491481338843133355E-15, 1.224646799147353207E-16, -1.000000000000000000 ) ) ;
#66 = CYLINDRICAL_SURFACE ( 'NONE', #148, 0.3649999999999993250 ) ;
#67 = PRODUCT_RELATED_PRODUCT_CATEGORY ( 'detail', '', ( #14 ) ) ;
#68 =( NAMED_UNIT ( * ) SI_UNIT ( $, .STERADIAN. ) SOLID_ANGLE_UNIT ( ) );
#69 = CARTESIAN_POINT ( 'NONE',  ( 5.101711399985324237E-14, -1.789439475634068094E-15, 14.61188219231818763 ) ) ;
#70 = CARTESIAN_POINT ( 'NONE',  ( 2.793185071074506684E-14, 0.3649999999999989919, 8.000000000000000000 ) ) ;
#71 = COORDINATED_UNIVERSAL_TIME_OFFSET ( 1, 0, .AHEAD. ) ;
#72 = CC_DESIGN_SECURITY_CLASSIFICATION ( #129, ( #121 ) ) ;
#73 = COORDINATED_UNIVERSAL_TIME_OFFSET ( 1, 0, .AHEAD. ) ;
#74 = PERSON_AND_ORGANIZATION ( #277, #154 ) ;
#75 = CC_DESIGN_APPROVAL ( #43, ( #129 ) ) ;
#76 = CARTESIAN_POINT ( 'NONE',  ( 3.491481338843132862E-16, -1.224646799147352961E-17, 0.09999999999999997780 ) ) ;
#77 = EDGE_LOOP ( 'NONE', ( #34 ) ) ;
#78 = PLANE ( 'NONE',  #86 ) ;
#79 = ORIENTED_EDGE ( 'NONE', *, *, #88, .T. ) ;
#80 = FACE_OUTER_BOUND ( 'NONE', #169, .T. ) ;
#81 = DIRECTION ( 'NONE',  ( -4.275831445896958607E-31, -1.000000000000000000, -1.224646799147353207E-16 ) ) ;
#82 = ADVANCED_FACE ( 'NONE', ( #236 ), #214, .F. ) ;
#83 = DIRECTION ( 'NONE',  ( 4.275831445896959482E-31, 1.000000000000000000, 1.224646799147353207E-16 ) ) ;
#84 = AXIS2_PLACEMENT_3D ( 'NONE', #198, #155, #42 ) ;
#85 = CARTESIAN_POINT ( 'NONE',  ( 1.396592535537253342E-14, 0.3649999999999990474, 4.000000000000000000 ) ) ;
#86 = AXIS2_PLACEMENT_3D ( 'NONE', #16, #190, #149 ) ;
#87 = CARTESIAN_POINT ( 'NONE',  ( 2.914442945444143071E-14, 0.3953844939755803978, 8.347296355333847728 ) ) ;
#88 = EDGE_CURVE ( 'NONE', #105, #105, #260, .T. ) ;
#89 = AXIS2_PLACEMENT_3D ( 'NONE', #151, #126, #103 ) ;
#90 = CARTESIAN_POINT ( 'NONE',  ( 0.0000000000000000000, 0.0000000000000000000, 0.0000000000000000000 ) ) ;
#91 = DATE_AND_TIME ( #28, #184 ) ;
#92 = PERSON_AND_ORGANIZATION_ROLE ( 'design_owner' ) ;
#93 = PERSON_AND_ORGANIZATION_ROLE ( 'design_supplier' ) ;
#94 = DATE_TIME_ROLE ( 'classification_date' ) ;
#95 = ORIENTED_EDGE ( 'NONE', *, *, #195, .T. ) ;
#96 = AXIS2_PLACEMENT_3D ( 'NONE', #19, #106, #161 ) ;
#97 = AXIS2_PLACEMENT_3D ( 'NONE', #153, #233, #172 ) ;
#98 = FACE_BOUND ( 'NONE', #269, .T. ) ;
#99 = ORIENTED_EDGE ( 'NONE', *, *, #64, .F. ) ;
#100 = CC_DESIGN_PERSON_AND_ORGANIZATION_ASSIGNMENT ( #199, #93, ( #121 ) ) ;
#101 = EDGE_LOOP ( 'NONE', ( #191 ) ) ;
#102 = ORIENTED_EDGE ( 'NONE', *, *, #215, .F. ) ;
#103 = DIRECTION ( 'NONE',  ( 0.0000000000000000000, 1.000000000000000000, 0.0000000000000000000 ) ) ;
#104 = AXIS2_PLACEMENT_3D ( 'NONE', #194, #128, #56 ) ;
#105 = VERTEX_POINT ( 'NONE', #238 ) ;
#106 = DIRECTION ( 'NONE',  ( -3.491481338843133355E-15, 1.224646799147353207E-16, -1.000000000000000000 ) ) ;
#107 = DIRECTION ( 'NONE',  ( 4.275831445896958607E-31, 1.000000000000000000, 1.224646799147353207E-16 ) ) ;
#108 = APPLICATION_CONTEXT ( 'configuration controlled 3d designs of mechanical parts and assemblies' ) ;
#109 = CARTESIAN_POINT ( 'NONE',  ( 0.0000000000000000000, 0.0000000000000000000, 0.0000000000000000000 ) ) ;
#110 = ADVANCED_FACE ( 'NONE', ( #12, #124 ), #51, .T. ) ;
#111 = ADVANCED_BREP_SHAPE_REPRESENTATION ( '327003', ( #131, #137, #252 ), #246 ) ;
#112 = DIRECTION ( 'NONE',  ( -3.491481338843133355E-15, 1.224646799147353207E-16, -1.000000000000000000 ) ) ;
#113 = AXIS2_PLACEMENT_3D ( 'NONE', #26, #65, #180 ) ;
#114 = APPROVAL_ROLE ( '' ) ;
#115 = DIRECTION ( 'NONE',  ( 0.0000000000000000000, 0.0000000000000000000, 1.000000000000000000 ) ) ;
#116 = AXIS2_PLACEMENT_3D ( 'NONE', #61, #254, #36 ) ;
#117 = COORDINATED_UNIVERSAL_TIME_OFFSET ( 1, 0, .AHEAD. ) ;
#118 = PERSON_AND_ORGANIZATION_ROLE ( 'classification_officer' ) ;
#119 = EDGE_LOOP ( 'NONE', ( #145 ) ) ;
#120 = ORIENTED_EDGE ( 'NONE', *, *, #49, .T. ) ;
#121 = PRODUCT_DEFINITION_FORMATION_WITH_SPECIFIED_SOURCE ( 'ANY', '', #14, .NOT_KNOWN. ) ;
#122 = FACE_OUTER_BOUND ( 'NONE', #272, .T. ) ;
#123 = APPROVAL ( #263, 'UNSPECIFIED' ) ;
#124 = FACE_OUTER_BOUND ( 'NONE', #274, .T. ) ;
#125 = ORIENTED_EDGE ( 'NONE', *, *, #22, .T. ) ;
#126 = DIRECTION ( 'NONE',  ( -3.491481338843133355E-15, 1.224646799147353207E-16, -1.000000000000000000 ) ) ;
#127 = CYLINDRICAL_SURFACE ( 'NONE', #165, 1.500000000000000222 ) ;
#128 = DIRECTION ( 'NONE',  ( 3.491481338843133355E-15, -1.224646799147353207E-16, 1.000000000000000000 ) ) ;
#129 = SECURITY_CLASSIFICATION ( '', '', #225 ) ;
#130 = VERTEX_POINT ( 'NONE', #282 ) ;
#131 = MANIFOLD_SOLID_BREP ( 'Corps-Déplacer/Copier1[1]', #176 ) ;
#132 = ADVANCED_FACE ( 'NONE', ( #98, #231 ), #276, .T. ) ;
#133 = LOCAL_TIME ( 8, 27, 26.00000000000000000, #71 ) ;
#134 =( NAMED_UNIT ( * ) PLANE_ANGLE_UNIT ( ) SI_UNIT ( $, .RADIAN. ) );
#135 = FACE_OUTER_BOUND ( 'NONE', #249, .T. ) ;
#136 = APPROVAL_STATUS ( 'not_yet_approved' ) ;
#137 = MANIFOLD_SOLID_BREP ( 'Corps-Déplacer/Copier1[2]', #187 ) ;
#138 = AXIS2_PLACEMENT_3D ( 'NONE', #69, #24, #159 ) ;
#139 = CC_DESIGN_APPROVAL ( #123, ( #178 ) ) ;
#140 = CC_DESIGN_DATE_AND_TIME_ASSIGNMENT ( #224, #94, ( #129 ) ) ;
#141 = DATE_AND_TIME ( #266, #133 ) ;
#142 = PERSON_AND_ORGANIZATION_ROLE ( 'creator' ) ;
#143 = AXIS2_PLACEMENT_3D ( 'NONE', #205, #59, #147 ) ;
#144 = PERSON_AND_ORGANIZATION_ROLE ( 'creator' ) ;
#145 = ORIENTED_EDGE ( 'NONE', *, *, #195, .F. ) ;
#146 = EDGE_LOOP ( 'NONE', ( #125 ) ) ;
#147 = DIRECTION ( 'NONE',  ( 4.275831445896958607E-31, 1.000000000000000000, 1.224646799147352961E-16 ) ) ;
#148 = AXIS2_PLACEMENT_3D ( 'NONE', #258, #25, #157 ) ;
#149 = DIRECTION ( 'NONE',  ( -4.275831445896958607E-31, -1.000000000000000000, -1.224646799147353207E-16 ) ) ;
#150 = PRODUCT_DEFINITION_SHAPE ( 'NONE', 'NONE',  #178 ) ;
#151 = CARTESIAN_POINT ( 'NONE',  ( 1.396592535537253342E-14, -4.898587196589412829E-16, 4.000000000000000000 ) ) ;
#152 = CARTESIAN_POINT ( 'NONE',  ( 1.396592535537253342E-14, 2.737061603357879666E-33, 4.000000000000000000 ) ) ;
#153 = CARTESIAN_POINT ( 'NONE',  ( 1.326762908760390423E-13, -4.653657836759941941E-15, 38.00000000000000000 ) ) ;
#154 = ORGANIZATION ( 'UNSPECIFIED', 'UNSPECIFIED', '' ) ;
#155 = DIRECTION ( 'NONE',  ( -3.491481338843133355E-15, 1.224646799147353207E-16, -1.000000000000000000 ) ) ;
#156 = VERTEX_POINT ( 'NONE', #70 ) ;
#157 = DIRECTION ( 'NONE',  ( 4.275831445896958607E-31, 1.000000000000000000, 1.224646799147353207E-16 ) ) ;
#158 = CC_DESIGN_PERSON_AND_ORGANIZATION_ASSIGNMENT ( #30, #142, ( #121 ) ) ;
#159 = DIRECTION ( 'NONE',  ( 0.0000000000000000000, 1.000000000000000000, 0.0000000000000000000 ) ) ;
#160 = VERTEX_POINT ( 'NONE', #240 ) ;
#161 = DIRECTION ( 'NONE',  ( 0.0000000000000000000, 1.000000000000000000, 0.0000000000000000000 ) ) ;
#162 = VERTEX_POINT ( 'NONE', #87 ) ;
#163 = APPLICATION_PROTOCOL_DEFINITION ( 'international standard', 'config_control_design', 1994, #108 ) ;
#164 = PERSON_AND_ORGANIZATION ( #277, #154 ) ;
#165 = AXIS2_PLACEMENT_3D ( 'NONE', #211, #175, #83 ) ;
#166 = DATE_AND_TIME ( #183, #281 ) ;
#167 = ADVANCED_FACE ( 'NONE', ( #122 ), #78, .T. ) ;
#168 = DIRECTION ( 'NONE',  ( -3.491481338843133355E-15, 1.224646799147353207E-16, -1.000000000000000000 ) ) ;
#169 = EDGE_LOOP ( 'NONE', ( #99 ) ) ;
#170 = DIRECTION ( 'NONE',  ( -3.491481338843133355E-15, 1.224646799147353207E-16, -1.000000000000000000 ) ) ;
#171 = EDGE_LOOP ( 'NONE', ( #95 ) ) ;
#172 = DIRECTION ( 'NONE',  ( 0.0000000000000000000, 1.000000000000000000, 0.0000000000000000000 ) ) ;
#173 = ORIENTED_EDGE ( 'NONE', *, *, #250, .F. ) ;
#174 = CARTESIAN_POINT ( 'NONE',  ( 1.326762908760390423E-13, -4.653657836759941941E-15, 38.00000000000000000 ) ) ;
#175 = DIRECTION ( 'NONE',  ( -3.491481338843133355E-15, 1.224646799147353207E-16, -1.000000000000000000 ) ) ;
#176 = CLOSED_SHELL ( 'NONE', ( #57, #39, #262, #110, #1, #221, #271 ) ) ;
#177 = PLANE ( 'NONE',  #8 ) ;
#178 = PRODUCT_DEFINITION ( 'UNKNOWN', '', #121, #241 ) ;
#179 = FACE_OUTER_BOUND ( 'NONE', #119, .T. ) ;
#180 = DIRECTION ( 'NONE',  ( 4.275831445896958607E-31, 1.000000000000000000, 1.224646799147353207E-16 ) ) ;
#181 = CIRCLE ( 'NONE', #237, 0.3649999999999991029 ) ;
#182 = PERSON_AND_ORGANIZATION ( #277, #154 ) ;
#183 = CALENDAR_DATE ( 2021, 1, 12 ) ;
#184 = LOCAL_TIME ( 8, 27, 26.00000000000000000, #117 ) ;
#185 = DIRECTION ( 'NONE',  ( 1.000000000000000000, 0.0000000000000000000, 0.0000000000000000000 ) ) ;
#186 = DATE_AND_TIME ( #7, #223 ) ;
#187 = CLOSED_SHELL ( 'NONE', ( #82, #132, #33, #167 ) ) ;
#188 = APPROVAL_PERSON_ORGANIZATION ( #10, #200, #29 ) ;
#189 = DIRECTION ( 'NONE',  ( 3.491481338843133355E-15, -1.224646799147353207E-16, 1.000000000000000000 ) ) ;
#190 = DIRECTION ( 'NONE',  ( 3.491481338843133355E-15, -1.224646799147353207E-16, 1.000000000000000000 ) ) ;
#191 = ORIENTED_EDGE ( 'NONE', *, *, #250, .T. ) ;
#192 = CARTESIAN_POINT ( 'NONE',  ( 5.101711399985324237E-14, -1.789439475634068094E-15, 14.61188219231818763 ) ) ;
#193 = FACE_OUTER_BOUND ( 'NONE', #204, .T. ) ;
#194 = CARTESIAN_POINT ( 'NONE',  ( -6.569066170612909162E-32, 2.304118246238090289E-33, -1.881455328868949832E-17 ) ) ;
#195 = EDGE_CURVE ( 'NONE', #62, #62, #181, .T. ) ;
#196 = FACE_OUTER_BOUND ( 'NONE', #101, .T. ) ;
#197 = CIRCLE ( 'NONE', #89, 0.3649999999999995470 ) ;
#198 = CARTESIAN_POINT ( 'NONE',  ( 2.793185071074506684E-14, -9.797174393178825657E-16, 8.000000000000000000 ) ) ;
#199 = PERSON_AND_ORGANIZATION ( #277, #154 ) ;
#200 = APPROVAL ( #31, 'UNSPECIFIED' ) ;
#201 = CIRCLE ( 'NONE', #116, 0.3649999999999995470 ) ;
#202 = AXIS2_PLACEMENT_3D ( 'NONE', #54, #247, #18 ) ;
#203 = MECHANICAL_CONTEXT ( 'NONE', #48, 'mechanical' ) ;
#204 = EDGE_LOOP ( 'NONE', ( #58 ) ) ;
#205 = CARTESIAN_POINT ( 'NONE',  ( -1.313813234122581832E-31, 4.608236492476180577E-33, -3.762910657737899665E-17 ) ) ;
#206 = ORIENTED_EDGE ( 'NONE', *, *, #88, .F. ) ;
#207 = ORIENTED_EDGE ( 'NONE', *, *, #49, .F. ) ;
#208 = DIRECTION ( 'NONE',  ( 0.0000000000000000000, 1.000000000000000000, 0.0000000000000000000 ) ) ;
#209 = EDGE_LOOP ( 'NONE', ( #79 ) ) ;
#210 = DIRECTION ( 'NONE',  ( 3.491481338843133355E-15, -1.224646799147353207E-16, 1.000000000000000000 ) ) ;
#211 = CARTESIAN_POINT ( 'NONE',  ( 0.0000000000000000000, 0.0000000000000000000, 0.0000000000000000000 ) ) ;
#212 = AXIS2_PLACEMENT_3D ( 'NONE', #192, #189, #275 ) ;
#213 = AXIS2_PLACEMENT_3D ( 'NONE', #174, #170, #208 ) ;
#214 = PLANE ( 'NONE',  #104 ) ;
#215 = EDGE_CURVE ( 'NONE', #160, #160, #63, .T. ) ;
#216 = APPLICATION_PROTOCOL_DEFINITION ( 'international standard', 'config_control_design', 1994, #48 ) ;
#217 = CYLINDRICAL_SURFACE ( 'NONE', #23, 0.3649999999999997691 ) ;
#218 = APPROVAL_PERSON_ORGANIZATION ( #11, #123, #114 ) ;
#219 =( LENGTH_UNIT ( ) NAMED_UNIT ( * ) SI_UNIT ( .MILLI., .METRE. ) );
#220 = DIRECTION ( 'NONE',  ( -3.491481338843133355E-15, 1.224646799147353207E-16, -1.000000000000000000 ) ) ;
#221 = ADVANCED_FACE ( 'NONE', ( #270, #255 ), #265, .T. ) ;
#222 = CIRCLE ( 'NONE', #84, 0.3649999999999999911 ) ;
#223 = LOCAL_TIME ( 8, 27, 26.00000000000000000, #73 ) ;
#224 = DATE_AND_TIME ( #47, #227 ) ;
#225 = SECURITY_CLASSIFICATION_LEVEL ( 'unclassified' ) ;
#226 = PERSON_AND_ORGANIZATION ( #277, #154 ) ;
#227 = LOCAL_TIME ( 8, 27, 26.00000000000000000, #242 ) ;
#228 = APPROVAL_DATE_TIME ( #141, #123 ) ;
#229 = EDGE_LOOP ( 'NONE', ( #37 ) ) ;
#230 = ORIENTED_EDGE ( 'NONE', *, *, #22, .F. ) ;
#231 = FACE_OUTER_BOUND ( 'NONE', #171, .T. ) ;
#232 = ORIENTED_EDGE ( 'NONE', *, *, #5, .T. ) ;
#233 = DIRECTION ( 'NONE',  ( -3.491481338843133355E-15, 1.224646799147353207E-16, -1.000000000000000000 ) ) ;
#234 = EDGE_LOOP ( 'NONE', ( #279 ) ) ;
#235 = FACE_OUTER_BOUND ( 'NONE', #53, .T. ) ;
#236 = FACE_OUTER_BOUND ( 'NONE', #209, .T. ) ;
#237 = AXIS2_PLACEMENT_3D ( 'NONE', #76, #168, #273 ) ;
#238 = CARTESIAN_POINT ( 'NONE',  ( 0.0000000000000000000, 0.3072649730810373403, 0.0000000000000000000 ) ) ;
#239 = CARTESIAN_POINT ( 'NONE',  ( 2.914442945444143071E-14, -1.022248976309396476E-15, 8.347296355333847728 ) ) ;
#240 = CARTESIAN_POINT ( 'NONE',  ( 1.326762908760390423E-13, 1.199999999999998845, 38.00000000000000000 ) ) ;
#241 = DESIGN_CONTEXT ( 'detailed design', #108, 'design' ) ;
#242 = COORDINATED_UNIVERSAL_TIME_OFFSET ( 1, 0, .AHEAD. ) ;
#243 = SHAPE_DEFINITION_REPRESENTATION ( #150, #111 ) ;
#244 = APPROVAL_ROLE ( '' ) ;
#245 = CIRCLE ( 'NONE', #138, 1.499999999999997113 ) ;
#246 =( GEOMETRIC_REPRESENTATION_CONTEXT ( 3 ) GLOBAL_UNCERTAINTY_ASSIGNED_CONTEXT ( ( #13 ) ) GLOBAL_UNIT_ASSIGNED_CONTEXT ( ( #219, #134, #68 ) ) REPRESENTATION_CONTEXT ( 'NONE', 'WORKASPACE' ) );
#247 = DIRECTION ( 'NONE',  ( 3.491481338843133355E-15, -1.224646799147353207E-16, 1.000000000000000000 ) ) ;
#248 = CC_DESIGN_DATE_AND_TIME_ASSIGNMENT ( #91, #267, ( #178 ) ) ;
#249 = EDGE_LOOP ( 'NONE', ( #232 ) ) ;
#250 = EDGE_CURVE ( 'NONE', #4, #4, #197, .T. ) ;
#251 = AXIS2_PLACEMENT_3D ( 'NONE', #152, #210, #81 ) ;
#252 = AXIS2_PLACEMENT_3D ( 'NONE', #90, #115, #185 ) ;
#253 = EDGE_LOOP ( 'NONE', ( #52 ) ) ;
#254 = DIRECTION ( 'NONE',  ( -3.491481338843133355E-15, 1.224646799147353207E-16, -1.000000000000000000 ) ) ;
#255 = FACE_BOUND ( 'NONE', #229, .T. ) ;
#256 = VERTEX_POINT ( 'NONE', #44 ) ;
#257 = CARTESIAN_POINT ( 'NONE',  ( 1.396592535537253342E-14, 0.3649999999999990474, 4.000000000000000000 ) ) ;
#258 = CARTESIAN_POINT ( 'NONE',  ( 0.0000000000000000000, 0.0000000000000000000, 0.0000000000000000000 ) ) ;
#259 = CARTESIAN_POINT ( 'NONE',  ( 1.326762908760390423E-13, 8.998558695971103225E-33, 38.00000000000000000 ) ) ;
#260 = CIRCLE ( 'NONE', #143, 0.3072649730810373403 ) ;
#261 = APPROVAL_DATE_TIME ( #166, #200 ) ;
#262 = ADVANCED_FACE ( 'NONE', ( #193, #278 ), #27, .F. ) ;
#263 = APPROVAL_STATUS ( 'not_yet_approved' ) ;
#264 = CIRCLE ( 'NONE', #96, 1.500000000000003331 ) ;
#265 = CONICAL_SURFACE ( 'NONE', #97, 1.200000000000003286, 0.7853981633974453924 ) ;
#266 = CALENDAR_DATE ( 2021, 1, 12 ) ;
#267 = DATE_TIME_ROLE ( 'creation_date' ) ;
#268 = APPROVAL_DATE_TIME ( #186, #43 ) ;
#269 = EDGE_LOOP ( 'NONE', ( #206 ) ) ;
#270 = FACE_OUTER_BOUND ( 'NONE', #17, .T. ) ;
#271 = ADVANCED_FACE ( 'NONE', ( #280 ), #177, .F. ) ;
#272 = EDGE_LOOP ( 'NONE', ( #173 ) ) ;
#273 = DIRECTION ( 'NONE',  ( 3.957390296686111206E-31, 1.000000000000000000, 1.113906341594699190E-16 ) ) ;
#274 = EDGE_LOOP ( 'NONE', ( #120 ) ) ;
#275 = DIRECTION ( 'NONE',  ( 0.0000000000000000000, -1.000000000000000000, 0.0000000000000000000 ) ) ;
#276 = CONICAL_SURFACE ( 'NONE', #202, 0.3649999999999991029, 0.5235987755982929315 ) ;
#277 = PERSON ( 'UNSPECIFIED', 'UNSPECIFIED', 'UNSPECIFIED', ('UNSPECIFIED'), ('UNSPECIFIED'), ('UNSPECIFIED') ) ;
#278 = FACE_OUTER_BOUND ( 'NONE', #77, .T. ) ;
#279 = ORIENTED_EDGE ( 'NONE', *, *, #64, .T. ) ;
#280 = FACE_OUTER_BOUND ( 'NONE', #15, .T. ) ;
#281 = LOCAL_TIME ( 8, 27, 26.00000000000000000, #32 ) ;
#282 = CARTESIAN_POINT ( 'NONE',  ( 1.316288464743861212E-13, 1.499999999999998668, 37.69999999999999574 ) ) ;
#283 = CC_DESIGN_PERSON_AND_ORGANIZATION_ASSIGNMENT ( #164, #118, ( #129 ) ) ;
ENDSEC;
END-ISO-10303-21;
