ISO-10303-21;
HEADER;
FILE_DESCRIPTION (( 'STEP AP203' ),
    '1' );
FILE_NAME ('327002.step',
    '2021-12-01T07:27:26',
    ( '' ),
    ( '' ),
    'SwSTEP 2.0',
    'SolidWorks 2019',
    '' );
FILE_SCHEMA (( 'CONFIG_CONTROL_DESIGN' ));
ENDSEC;

DATA;
#1 = CC_DESIGN_PERSON_AND_ORGANIZATION_ASSIGNMENT ( #51, #228, ( #206 ) ) ;
#2 = PERSON_AND_ORGANIZATION_ROLE ( 'creator' ) ;
#3 = AXIS2_PLACEMENT_3D ( 'NONE', #71, #159, #141 ) ;
#4 = SHAPE_DEFINITION_REPRESENTATION ( #282, #172 ) ;
#5 = PERSON_AND_ORGANIZATION_ROLE ( 'creator' ) ;
#6 = ADVANCED_FACE ( 'NONE', ( #179, #134 ), #244, .T. ) ;
#7 = CARTESIAN_POINT ( 'NONE',  ( 0.0000000000000000000, 0.0000000000000000000, 0.0000000000000000000 ) ) ;
#8 = APPROVAL_PERSON_ORGANIZATION ( #98, #97, #145 ) ;
#9 = VERTEX_POINT ( 'NONE', #88 ) ;
#10 = FACE_OUTER_BOUND ( 'NONE', #236, .T. ) ;
#11 = CARTESIAN_POINT ( 'NONE',  ( 1.326762908760390423E-13, 1.199999999999998845, 38.00000000000000000 ) ) ;
#12 = ORIENTED_EDGE ( 'NONE', *, *, #231, .T. ) ;
#13 = EDGE_CURVE ( 'NONE', #85, #85, #144, .T. ) ;
#14 = FACE_BOUND ( 'NONE', #156, .T. ) ;
#15 = CC_DESIGN_DATE_AND_TIME_ASSIGNMENT ( #76, #74, ( #124 ) ) ;
#16 = ORIENTED_EDGE ( 'NONE', *, *, #231, .F. ) ;
#17 = CIRCLE ( 'NONE', #3, 0.3453844939755811860 ) ;
#18 = ORIENTED_EDGE ( 'NONE', *, *, #258, .T. ) ;
#19 =( LENGTH_UNIT ( ) NAMED_UNIT ( * ) SI_UNIT ( .MILLI., .METRE. ) );
#20 = ADVANCED_FACE ( 'NONE', ( #108, #150 ), #68, .T. ) ;
#21 = PLANE ( 'NONE',  #25 ) ;
#22 = LOCAL_TIME ( 8, 27, 26.00000000000000000, #225 ) ;
#23 = APPROVAL ( #242, 'UNSPECIFIED' ) ;
#24 = PERSON_AND_ORGANIZATION ( #250, #31 ) ;
#25 = AXIS2_PLACEMENT_3D ( 'NONE', #72, #47, #262 ) ;
#26 = UNCERTAINTY_MEASURE_WITH_UNIT (LENGTH_MEASURE( 1.000000000000000082E-05 ), #19, 'distance_accuracy_value', 'NONE');
#27 = PRODUCT_DEFINITION ( 'UNKNOWN', '', #206, #160 ) ;
#28 = APPLICATION_CONTEXT ( 'configuration controlled 3d designs of mechanical parts and assemblies' ) ;
#29 = CARTESIAN_POINT ( 'NONE',  ( 4.851569139303592077E-14, -1.701701381356620832E-15, 13.89544628329908349 ) ) ;
#30 = DATE_AND_TIME ( #128, #22 ) ;
#31 = ORGANIZATION ( 'UNSPECIFIED', 'UNSPECIFIED', '' ) ;
#32 = DIRECTION ( 'NONE',  ( 4.275831445896959482E-31, 1.000000000000000000, 1.224646799147353207E-16 ) ) ;
#33 = EDGE_LOOP ( 'NONE', ( #138 ) ) ;
#34 = FACE_OUTER_BOUND ( 'NONE', #217, .T. ) ;
#35 = DIRECTION ( 'NONE',  ( -3.491481338843133355E-15, 1.224646799147353207E-16, -1.000000000000000000 ) ) ;
#36 = AXIS2_PLACEMENT_3D ( 'NONE', #248, #195, #60 ) ;
#37 = VERTEX_POINT ( 'NONE', #274 ) ;
#38 = EDGE_LOOP ( 'NONE', ( #59 ) ) ;
#39 = ADVANCED_FACE ( 'NONE', ( #84, #171 ), #188, .T. ) ;
#40 = APPLICATION_PROTOCOL_DEFINITION ( 'international standard', 'config_control_design', 1994, #28 ) ;
#41 = CARTESIAN_POINT ( 'NONE',  ( 1.396592535537253342E-14, -4.898587196589412829E-16, 4.000000000000000000 ) ) ;
#42 = ORIENTED_EDGE ( 'NONE', *, *, #246, .T. ) ;
#43 = DIRECTION ( 'NONE',  ( 3.491481338843133355E-15, -1.224646799147353207E-16, 1.000000000000000000 ) ) ;
#44 = ORIENTED_EDGE ( 'NONE', *, *, #13, .F. ) ;
#45 = VERTEX_POINT ( 'NONE', #133 ) ;
#46 = DIRECTION ( 'NONE',  ( -3.491481338843133355E-15, 1.224646799147353207E-16, -1.000000000000000000 ) ) ;
#47 = DIRECTION ( 'NONE',  ( 3.491481338843133355E-15, -1.224646799147353207E-16, 1.000000000000000000 ) ) ;
#48 = CC_DESIGN_APPROVAL ( #23, ( #124 ) ) ;
#49 = AXIS2_PLACEMENT_3D ( 'NONE', #271, #46, #251 ) ;
#50 = DIRECTION ( 'NONE',  ( 0.0000000000000000000, 1.000000000000000000, 0.0000000000000000000 ) ) ;
#51 = PERSON_AND_ORGANIZATION ( #250, #31 ) ;
#52 = APPROVAL_STATUS ( 'not_yet_approved' ) ;
#53 = DIRECTION ( 'NONE',  ( -3.491481338843133355E-15, 1.224646799147353207E-16, -1.000000000000000000 ) ) ;
#54 = APPROVAL_ROLE ( '' ) ;
#55 = APPLICATION_CONTEXT ( 'configuration controlled 3d designs of mechanical parts and assemblies' ) ;
#56 = CLOSED_SHELL ( 'NONE', ( #239, #20, #283, #186, #264, #39, #61 ) ) ;
#57 = ORIENTED_EDGE ( 'NONE', *, *, #226, .T. ) ;
#58 = DIRECTION ( 'NONE',  ( -3.491481338843133355E-15, 1.224646799147353207E-16, -1.000000000000000000 ) ) ;
#59 = ORIENTED_EDGE ( 'NONE', *, *, #147, .T. ) ;
#60 = DIRECTION ( 'NONE',  ( 0.0000000000000000000, -1.000000000000000000, 0.0000000000000000000 ) ) ;
#61 = ADVANCED_FACE ( 'NONE', ( #10 ), #87, .F. ) ;
#62 = CC_DESIGN_PERSON_AND_ORGANIZATION_ASSIGNMENT ( #165, #2, ( #206 ) ) ;
#63 =( GEOMETRIC_REPRESENTATION_CONTEXT ( 3 ) GLOBAL_UNCERTAINTY_ASSIGNED_CONTEXT ( ( #26 ) ) GLOBAL_UNIT_ASSIGNED_CONTEXT ( ( #19, #257, #193 ) ) REPRESENTATION_CONTEXT ( 'NONE', 'WORKASPACE' ) );
#64 = CARTESIAN_POINT ( 'NONE',  ( 3.491481338843134341E-16, 0.3149999999999993916, 0.1000000000000000194 ) ) ;
#65 = FACE_OUTER_BOUND ( 'NONE', #245, .T. ) ;
#66 = EDGE_LOOP ( 'NONE', ( #44 ) ) ;
#67 = DIRECTION ( 'NONE',  ( 1.000000000000000000, 0.0000000000000000000, 0.0000000000000000000 ) ) ;
#68 = CYLINDRICAL_SURFACE ( 'NONE', #268, 0.3150000000000000022 ) ;
#69 = CARTESIAN_POINT ( 'NONE',  ( 0.0000000000000000000, 0.0000000000000000000, 0.0000000000000000000 ) ) ;
#70 = AXIS2_PLACEMENT_3D ( 'NONE', #93, #256, #181 ) ;
#71 = CARTESIAN_POINT ( 'NONE',  ( 2.565294811559829736E-14, -8.997842963946611302E-16, 7.347296355333847728 ) ) ;
#72 = CARTESIAN_POINT ( 'NONE',  ( 1.396592535537253342E-14, 2.362121657692417316E-33, 4.000000000000000000 ) ) ;
#73 = AXIS2_PLACEMENT_3D ( 'NONE', #233, #280, #86 ) ;
#74 = DATE_TIME_ROLE ( 'classification_date' ) ;
#75 = CIRCLE ( 'NONE', #263, 0.3149999999999998357 ) ;
#76 = DATE_AND_TIME ( #265, #162 ) ;
#77 = DIRECTION ( 'NONE',  ( -3.491481338843133355E-15, 1.224646799147353207E-16, -1.000000000000000000 ) ) ;
#78 = DATE_AND_TIME ( #205, #261 ) ;
#79 = CC_DESIGN_PERSON_AND_ORGANIZATION_ASSIGNMENT ( #140, #116, ( #253 ) ) ;
#80 = CARTESIAN_POINT ( 'NONE',  ( 3.491481338843132862E-16, -1.224646799147352961E-17, 0.09999999999999997780 ) ) ;
#81 = COORDINATED_UNIVERSAL_TIME_OFFSET ( 1, 0, .AHEAD. ) ;
#82 = AXIS2_PLACEMENT_3D ( 'NONE', #113, #214, #277 ) ;
#83 = EDGE_LOOP ( 'NONE', ( #152 ) ) ;
#84 = FACE_OUTER_BOUND ( 'NONE', #235, .T. ) ;
#85 = VERTEX_POINT ( 'NONE', #175 ) ;
#86 = DIRECTION ( 'NONE',  ( 0.0000000000000000000, 1.000000000000000000, 0.0000000000000000000 ) ) ;
#87 = PLANE ( 'NONE',  #70 ) ;
#88 = CARTESIAN_POINT ( 'NONE',  ( 2.444036937190193349E-14, 0.3149999999999992806, 7.000000000000000000 ) ) ;
#89 = EDGE_LOOP ( 'NONE', ( #42 ) ) ;
#90 = AXIS2_PLACEMENT_3D ( 'NONE', #247, #35, #211 ) ;
#91 = CARTESIAN_POINT ( 'NONE',  ( 0.0000000000000000000, 0.0000000000000000000, 0.0000000000000000000 ) ) ;
#92 = ORIENTED_EDGE ( 'NONE', *, *, #146, .F. ) ;
#93 = CARTESIAN_POINT ( 'NONE',  ( 1.326762908760390423E-13, 8.998558695971103225E-33, 38.00000000000000000 ) ) ;
#94 = CARTESIAN_POINT ( 'NONE',  ( 4.851569139303592077E-14, 1.499999999999995559, 13.89544628329908349 ) ) ;
#95 = FACE_OUTER_BOUND ( 'NONE', #83, .T. ) ;
#96 = CIRCLE ( 'NONE', #203, 0.3150000000000001688 ) ;
#97 = APPROVAL ( #52, 'UNSPECIFIED' ) ;
#98 = PERSON_AND_ORGANIZATION ( #250, #31 ) ;
#99 = APPROVAL_DATE_TIME ( #78, #97 ) ;
#100 = CALENDAR_DATE ( 2021, 1, 12 ) ;
#101 = PERSON_AND_ORGANIZATION_ROLE ( 'classification_officer' ) ;
#102 = CLOSED_SHELL ( 'NONE', ( #117, #6, #196, #219 ) ) ;
#103 = CALENDAR_DATE ( 2021, 1, 12 ) ;
#104 = DATE_TIME_ROLE ( 'creation_date' ) ;
#105 = AXIS2_PLACEMENT_3D ( 'NONE', #29, #126, #168 ) ;
#106 = DIRECTION ( 'NONE',  ( -3.491481338843133355E-15, 1.224646799147353207E-16, -1.000000000000000000 ) ) ;
#107 = DIRECTION ( 'NONE',  ( -3.491481338843133355E-15, 1.224646799147353207E-16, -1.000000000000000000 ) ) ;
#108 = FACE_OUTER_BOUND ( 'NONE', #215, .T. ) ;
#109 = VERTEX_POINT ( 'NONE', #94 ) ;
#110 = ORIENTED_EDGE ( 'NONE', *, *, #243, .F. ) ;
#111 = VERTEX_POINT ( 'NONE', #11 ) ;
#112 = CARTESIAN_POINT ( 'NONE',  ( 3.491481338843132862E-16, -1.224646799147352961E-17, 0.09999999999999997780 ) ) ;
#113 = CARTESIAN_POINT ( 'NONE',  ( 2.444036937190193349E-14, -8.673617379884035472E-16, 7.000000000000000000 ) ) ;
#114 = DIRECTION ( 'NONE',  ( -3.491481338843133355E-15, 1.224646799147353207E-16, -1.000000000000000000 ) ) ;
#115 = FACE_OUTER_BOUND ( 'NONE', #273, .T. ) ;
#116 = PERSON_AND_ORGANIZATION_ROLE ( 'design_owner' ) ;
#117 = ADVANCED_FACE ( 'NONE', ( #115 ), #278, .F. ) ;
#118 = AXIS2_PLACEMENT_3D ( 'NONE', #202, #43, #173 ) ;
#119 = APPROVAL ( #148, 'UNSPECIFIED' ) ;
#120 = MANIFOLD_SOLID_BREP ( 'Corps-Déplacer/Copier1[2]', #102 ) ;
#121 = MANIFOLD_SOLID_BREP ( 'Corps-Déplacer/Copier1[1]', #56 ) ;
#122 = AXIS2_PLACEMENT_3D ( 'NONE', #208, #249, #177 ) ;
#123 = DATE_AND_TIME ( #103, #129 ) ;
#124 = SECURITY_CLASSIFICATION ( '', '', #241 ) ;
#125 = COORDINATED_UNIVERSAL_TIME_OFFSET ( 1, 0, .AHEAD. ) ;
#126 = DIRECTION ( 'NONE',  ( -3.491481338843133355E-15, 1.224646799147353207E-16, -1.000000000000000000 ) ) ;
#127 = CIRCLE ( 'NONE', #73, 1.200000000000003286 ) ;
#128 = CALENDAR_DATE ( 2021, 1, 12 ) ;
#129 = LOCAL_TIME ( 8, 27, 26.00000000000000000, #125 ) ;
#130 = CARTESIAN_POINT ( 'NONE',  ( 1.316288464743861212E-13, -4.616918432785521081E-15, 37.69999999999999574 ) ) ;
#131 = ORIENTED_EDGE ( 'NONE', *, *, #246, .F. ) ;
#132 = ORIENTED_EDGE ( 'NONE', *, *, #154, .F. ) ;
#133 = CARTESIAN_POINT ( 'NONE',  ( 1.316288464743861212E-13, 1.499999999999998668, 37.69999999999999574 ) ) ;
#134 = FACE_OUTER_BOUND ( 'NONE', #89, .T. ) ;
#135 = DIRECTION ( 'NONE',  ( 0.0000000000000000000, 1.000000000000000000, 0.0000000000000000000 ) ) ;
#136 = EDGE_LOOP ( 'NONE', ( #149 ) ) ;
#137 = FACE_OUTER_BOUND ( 'NONE', #213, .T. ) ;
#138 = ORIENTED_EDGE ( 'NONE', *, *, #243, .T. ) ;
#139 = CONICAL_SURFACE ( 'NONE', #36, 1.499999999999997113, 0.1745329251994261199 ) ;
#140 = PERSON_AND_ORGANIZATION ( #250, #31 ) ;
#141 = DIRECTION ( 'NONE',  ( 0.0000000000000000000, 1.000000000000000000, 0.0000000000000000000 ) ) ;
#142 = PERSON_AND_ORGANIZATION ( #250, #31 ) ;
#143 = DIRECTION ( 'NONE',  ( -3.491481338843133355E-15, 1.224646799147353207E-16, -1.000000000000000000 ) ) ;
#144 = CIRCLE ( 'NONE', #122, 0.2572649730810377955 ) ;
#145 = APPROVAL_ROLE ( '' ) ;
#146 = EDGE_CURVE ( 'NONE', #279, #279, #75, .T. ) ;
#147 = EDGE_CURVE ( 'NONE', #37, #37, #218, .T. ) ;
#148 = APPROVAL_STATUS ( 'not_yet_approved' ) ;
#149 = ORIENTED_EDGE ( 'NONE', *, *, #258, .F. ) ;
#150 = FACE_OUTER_BOUND ( 'NONE', #191, .T. ) ;
#151 = FACE_OUTER_BOUND ( 'NONE', #38, .T. ) ;
#152 = ORIENTED_EDGE ( 'NONE', *, *, #147, .F. ) ;
#153 = ORIENTED_EDGE ( 'NONE', *, *, #154, .T. ) ;
#154 = EDGE_CURVE ( 'NONE', #111, #111, #127, .T. ) ;
#155 = VERTEX_POINT ( 'NONE', #64 ) ;
#156 = EDGE_LOOP ( 'NONE', ( #267 ) ) ;
#157 = DIRECTION ( 'NONE',  ( 0.0000000000000000000, 0.0000000000000000000, 1.000000000000000000 ) ) ;
#158 = DIRECTION ( 'NONE',  ( 3.491481338843133355E-15, -1.224646799147353207E-16, 1.000000000000000000 ) ) ;
#159 = DIRECTION ( 'NONE',  ( -3.491481338843133355E-15, 1.224646799147353207E-16, -1.000000000000000000 ) ) ;
#160 = DESIGN_CONTEXT ( 'detailed design', #55, 'design' ) ;
#161 = CC_DESIGN_PERSON_AND_ORGANIZATION_ASSIGNMENT ( #142, #101, ( #124 ) ) ;
#162 = LOCAL_TIME ( 8, 27, 26.00000000000000000, #189 ) ;
#163 = AXIS2_PLACEMENT_3D ( 'NONE', #91, #114, #180 ) ;
#164 = COORDINATED_UNIVERSAL_TIME_OFFSET ( 1, 0, .AHEAD. ) ;
#165 = PERSON_AND_ORGANIZATION ( #250, #31 ) ;
#166 = FACE_OUTER_BOUND ( 'NONE', #174, .T. ) ;
#167 = APPROVAL_DATE_TIME ( #123, #119 ) ;
#168 = DIRECTION ( 'NONE',  ( 0.0000000000000000000, 1.000000000000000000, 0.0000000000000000000 ) ) ;
#169 = AXIS2_PLACEMENT_3D ( 'NONE', #69, #157, #67 ) ;
#170 = DATE_AND_TIME ( #100, #176 ) ;
#171 = FACE_BOUND ( 'NONE', #232, .T. ) ;
#172 = ADVANCED_BREP_SHAPE_REPRESENTATION ( '327002', ( #121, #120, #169 ), #63 ) ;
#173 = DIRECTION ( 'NONE',  ( -4.275831445896958607E-31, -1.000000000000000000, -1.224646799147353207E-16 ) ) ;
#174 = EDGE_LOOP ( 'NONE', ( #16 ) ) ;
#175 = CARTESIAN_POINT ( 'NONE',  ( 4.731839565957904486E-32, 0.2572649730810377955, 1.355252715606880543E-17 ) ) ;
#176 = LOCAL_TIME ( 8, 27, 26.00000000000000000, #81 ) ;
#177 = DIRECTION ( 'NONE',  ( 4.275831445896958607E-31, 1.000000000000000000, 1.224646799147352961E-16 ) ) ;
#178 = PLANE ( 'NONE',  #221 ) ;
#179 = FACE_BOUND ( 'NONE', #66, .T. ) ;
#180 = DIRECTION ( 'NONE',  ( 4.275831445896959482E-31, 1.000000000000000000, 1.224646799147353454E-16 ) ) ;
#181 = DIRECTION ( 'NONE',  ( 4.275831445896958607E-31, 1.000000000000000000, 1.224646799147353207E-16 ) ) ;
#182 = APPLICATION_PROTOCOL_DEFINITION ( 'international standard', 'config_control_design', 1994, #55 ) ;
#183 = PRODUCT_RELATED_PRODUCT_CATEGORY ( 'detail', '', ( #253 ) ) ;
#184 = AXIS2_PLACEMENT_3D ( 'NONE', #130, #58, #192 ) ;
#185 = APPROVAL_ROLE ( '' ) ;
#186 = ADVANCED_FACE ( 'NONE', ( #14, #137 ), #139, .T. ) ;
#187 = CC_DESIGN_SECURITY_CLASSIFICATION ( #124, ( #206 ) ) ;
#188 = CONICAL_SURFACE ( 'NONE', #90, 1.200000000000003286, 0.7853981633974453924 ) ;
#189 = COORDINATED_UNIVERSAL_TIME_OFFSET ( 1, 0, .AHEAD. ) ;
#190 = FACE_OUTER_BOUND ( 'NONE', #136, .T. ) ;
#191 = EDGE_LOOP ( 'NONE', ( #12 ) ) ;
#192 = DIRECTION ( 'NONE',  ( 0.0000000000000000000, 1.000000000000000000, 0.0000000000000000000 ) ) ;
#193 =( NAMED_UNIT ( * ) SI_UNIT ( $, .STERADIAN. ) SOLID_ANGLE_UNIT ( ) );
#194 = ORIENTED_EDGE ( 'NONE', *, *, #146, .T. ) ;
#195 = DIRECTION ( 'NONE',  ( 3.491481338843133355E-15, -1.224646799147353207E-16, 1.000000000000000000 ) ) ;
#196 = ADVANCED_FACE ( 'NONE', ( #65, #151 ), #276, .T. ) ;
#197 = DIRECTION ( 'NONE',  ( -4.585547486636285057E-31, -1.000000000000000000, -1.290716872006555492E-16 ) ) ;
#198 = CARTESIAN_POINT ( 'NONE',  ( 2.565294811559829736E-14, 0.3453844939755802979, 7.347296355333847728 ) ) ;
#199 = AXIS2_PLACEMENT_3D ( 'NONE', #112, #272, #197 ) ;
#200 = CARTESIAN_POINT ( 'NONE',  ( 1.396592535537253342E-14, 0.3149999999999993361, 4.000000000000000000 ) ) ;
#201 = CARTESIAN_POINT ( 'NONE',  ( 1.396592535537253342E-14, 2.362121657692417316E-33, 4.000000000000000000 ) ) ;
#202 = CARTESIAN_POINT ( 'NONE',  ( -3.134188526159727504E-32, 1.099325350470767063E-33, -8.976672712786740943E-18 ) ) ;
#203 = AXIS2_PLACEMENT_3D ( 'NONE', #220, #143, #50 ) ;
#204 = CC_DESIGN_APPROVAL ( #119, ( #206 ) ) ;
#205 = CALENDAR_DATE ( 2021, 1, 12 ) ;
#206 = PRODUCT_DEFINITION_FORMATION_WITH_SPECIFIED_SOURCE ( 'ANY', '', #253, .NOT_KNOWN. ) ;
#207 = APPROVAL_DATE_TIME ( #30, #23 ) ;
#208 = CARTESIAN_POINT ( 'NONE',  ( -6.268377052319455008E-32, 2.198650700941534126E-33, -1.795334542557348189E-17 ) ) ;
#209 = VERTEX_POINT ( 'NONE', #198 ) ;
#210 = AXIS2_PLACEMENT_3D ( 'NONE', #80, #53, #224 ) ;
#211 = DIRECTION ( 'NONE',  ( 0.0000000000000000000, 1.000000000000000000, 0.0000000000000000000 ) ) ;
#212 = CC_DESIGN_DATE_AND_TIME_ASSIGNMENT ( #170, #104, ( #27 ) ) ;
#213 = EDGE_LOOP ( 'NONE', ( #18 ) ) ;
#214 = DIRECTION ( 'NONE',  ( -3.491481338843133355E-15, 1.224646799147353207E-16, -1.000000000000000000 ) ) ;
#215 = EDGE_LOOP ( 'NONE', ( #92 ) ) ;
#216 = CIRCLE ( 'NONE', #210, 0.3149999999999993916 ) ;
#217 = EDGE_LOOP ( 'NONE', ( #57 ) ) ;
#218 = CIRCLE ( 'NONE', #49, 0.3149999999999998357 ) ;
#219 = ADVANCED_FACE ( 'NONE', ( #95 ), #178, .T. ) ;
#220 = CARTESIAN_POINT ( 'NONE',  ( 2.444036937190193349E-14, -8.572527594031473190E-16, 7.000000000000000000 ) ) ;
#221 = AXIS2_PLACEMENT_3D ( 'NONE', #201, #158, #237 ) ;
#222 = PERSON_AND_ORGANIZATION ( #250, #31 ) ;
#223 = PERSON_AND_ORGANIZATION ( #250, #31 ) ;
#224 = DIRECTION ( 'NONE',  ( 4.585547486636285057E-31, 1.000000000000000000, 1.290716872006555492E-16 ) ) ;
#225 = COORDINATED_UNIVERSAL_TIME_OFFSET ( 1, 0, .AHEAD. ) ;
#226 = EDGE_CURVE ( 'NONE', #209, #209, #17, .T. ) ;
#227 = CIRCLE ( 'NONE', #184, 1.500000000000003331 ) ;
#228 = PERSON_AND_ORGANIZATION_ROLE ( 'design_supplier' ) ;
#229 = CARTESIAN_POINT ( 'NONE',  ( 0.0000000000000000000, 0.0000000000000000000, 0.0000000000000000000 ) ) ;
#230 = EDGE_LOOP ( 'NONE', ( #194 ) ) ;
#231 = EDGE_CURVE ( 'NONE', #9, #9, #96, .T. ) ;
#232 = EDGE_LOOP ( 'NONE', ( #153 ) ) ;
#233 = CARTESIAN_POINT ( 'NONE',  ( 1.326762908760390423E-13, -4.653657836759941941E-15, 38.00000000000000000 ) ) ;
#234 = CC_DESIGN_APPROVAL ( #97, ( #27 ) ) ;
#235 = EDGE_LOOP ( 'NONE', ( #110 ) ) ;
#236 = EDGE_LOOP ( 'NONE', ( #132 ) ) ;
#237 = DIRECTION ( 'NONE',  ( -4.275831445896958607E-31, -1.000000000000000000, -1.224646799147353207E-16 ) ) ;
#238 = APPROVAL_PERSON_ORGANIZATION ( #223, #119, #185 ) ;
#239 = ADVANCED_FACE ( 'NONE', ( #260 ), #21, .F. ) ;
#240 = APPROVAL_PERSON_ORGANIZATION ( #222, #23, #54 ) ;
#241 = SECURITY_CLASSIFICATION_LEVEL ( 'unclassified' ) ;
#242 = APPROVAL_STATUS ( 'not_yet_approved' ) ;
#243 = EDGE_CURVE ( 'NONE', #45, #45, #227, .T. ) ;
#244 = CONICAL_SURFACE ( 'NONE', #199, 0.3149999999999993916, 0.5235987755982918213 ) ;
#245 = EDGE_LOOP ( 'NONE', ( #131 ) ) ;
#246 = EDGE_CURVE ( 'NONE', #155, #155, #216, .T. ) ;
#247 = CARTESIAN_POINT ( 'NONE',  ( 1.326762908760390423E-13, -4.653657836759941941E-15, 38.00000000000000000 ) ) ;
#248 = CARTESIAN_POINT ( 'NONE',  ( 4.851569139303592077E-14, -1.701701381356620832E-15, 13.89544628329908349 ) ) ;
#249 = DIRECTION ( 'NONE',  ( -3.491481338843133355E-15, 1.224646799147353207E-16, -1.000000000000000000 ) ) ;
#250 = PERSON ( 'UNSPECIFIED', 'UNSPECIFIED', 'UNSPECIFIED', ('UNSPECIFIED'), ('UNSPECIFIED'), ('UNSPECIFIED') ) ;
#251 = DIRECTION ( 'NONE',  ( 0.0000000000000000000, 1.000000000000000000, 0.0000000000000000000 ) ) ;
#252 = AXIS2_PLACEMENT_3D ( 'NONE', #229, #77, #32 ) ;
#253 = PRODUCT ( '327002', '327002', '', ( #255 ) ) ;
#254 = ORIENTED_EDGE ( 'NONE', *, *, #13, .T. ) ;
#255 = MECHANICAL_CONTEXT ( 'NONE', #28, 'mechanical' ) ;
#256 = DIRECTION ( 'NONE',  ( -3.491481338843133355E-15, 1.224646799147353207E-16, -1.000000000000000000 ) ) ;
#257 =( NAMED_UNIT ( * ) PLANE_ANGLE_UNIT ( ) SI_UNIT ( $, .RADIAN. ) );
#258 = EDGE_CURVE ( 'NONE', #109, #109, #275, .T. ) ;
#259 = CC_DESIGN_PERSON_AND_ORGANIZATION_ASSIGNMENT ( #24, #5, ( #27 ) ) ;
#260 = FACE_OUTER_BOUND ( 'NONE', #230, .T. ) ;
#261 = LOCAL_TIME ( 8, 27, 26.00000000000000000, #164 ) ;
#262 = DIRECTION ( 'NONE',  ( -4.275831445896958607E-31, -1.000000000000000000, -1.224646799147353207E-16 ) ) ;
#263 = AXIS2_PLACEMENT_3D ( 'NONE', #41, #107, #135 ) ;
#264 = ADVANCED_FACE ( 'NONE', ( #190, #269 ), #266, .T. ) ;
#265 = CALENDAR_DATE ( 2021, 1, 12 ) ;
#266 = CYLINDRICAL_SURFACE ( 'NONE', #252, 1.500000000000000222 ) ;
#267 = ORIENTED_EDGE ( 'NONE', *, *, #226, .F. ) ;
#268 = AXIS2_PLACEMENT_3D ( 'NONE', #7, #106, #270 ) ;
#269 = FACE_OUTER_BOUND ( 'NONE', #33, .T. ) ;
#270 = DIRECTION ( 'NONE',  ( 4.275831445896958607E-31, 1.000000000000000000, 1.224646799147353207E-16 ) ) ;
#271 = CARTESIAN_POINT ( 'NONE',  ( 1.396592535537253342E-14, -4.898587196589412829E-16, 4.000000000000000000 ) ) ;
#272 = DIRECTION ( 'NONE',  ( 3.491481338843133355E-15, -1.224646799147353207E-16, 1.000000000000000000 ) ) ;
#273 = EDGE_LOOP ( 'NONE', ( #254 ) ) ;
#274 = CARTESIAN_POINT ( 'NONE',  ( 1.396592535537253342E-14, 0.3149999999999993361, 4.000000000000000000 ) ) ;
#275 = CIRCLE ( 'NONE', #105, 1.499999999999997113 ) ;
#276 = CYLINDRICAL_SURFACE ( 'NONE', #163, 0.3149999999999996136 ) ;
#277 = DIRECTION ( 'NONE',  ( 4.398915081601521821E-31, 1.000000000000000000, 1.224646799147353207E-16 ) ) ;
#278 = PLANE ( 'NONE',  #118 ) ;
#279 = VERTEX_POINT ( 'NONE', #200 ) ;
#280 = DIRECTION ( 'NONE',  ( -3.491481338843133355E-15, 1.224646799147353207E-16, -1.000000000000000000 ) ) ;
#281 = TOROIDAL_SURFACE ( 'NONE', #82, 2.315000000000000391, 2.000000000000000000 ) ;
#282 = PRODUCT_DEFINITION_SHAPE ( 'NONE', 'NONE',  #27 ) ;
#283 = ADVANCED_FACE ( 'NONE', ( #166, #34 ), #281, .F. ) ;
ENDSEC;
END-ISO-10303-21;
