ISO-10303-21;
HEADER;
FILE_DESCRIPTION (( 'STEP AP203' ),
    '1' );
FILE_NAME ('327001.step',
    '2021-12-01T07:27:25',
    ( '' ),
    ( '' ),
    'SwSTEP 2.0',
    'SolidWorks 2019',
    '' );
FILE_SCHEMA (( 'CONFIG_CONTROL_DESIGN' ));
ENDSEC;

DATA;
#1 = CC_DESIGN_APPROVAL ( #84, ( #115 ) ) ;
#2 = APPROVAL ( #254, 'UNSPECIFIED' ) ;
#3 = ADVANCED_BREP_SHAPE_REPRESENTATION ( '327001', ( #82, #280, #224 ), #283 ) ;
#4 = EDGE_LOOP ( 'NONE', ( #83 ) ) ;
#5 = CARTESIAN_POINT ( 'NONE',  ( 1.745740669421566678E-14, -6.123233995736766282E-16, 5.000000000000000000 ) ) ;
#6 = PRODUCT_RELATED_PRODUCT_CATEGORY ( 'detail', '', ( #127 ) ) ;
#7 = CIRCLE ( 'NONE', #173, 1.200000000000003286 ) ;
#8 = CYLINDRICAL_SURFACE ( 'NONE', #157, 0.2349999999999996259 ) ;
#9 = PERSON_AND_ORGANIZATION ( #281, #229 ) ;
#10 = FACE_OUTER_BOUND ( 'NONE', #93, .T. ) ;
#11 = EDGE_CURVE ( 'NONE', #14, #14, #25, .T. ) ;
#12 = DIRECTION ( 'NONE',  ( -3.491481338843133355E-15, 1.224646799147353207E-16, -1.000000000000000000 ) ) ;
#13 = DIRECTION ( 'NONE',  ( 0.0000000000000000000, 1.000000000000000000, 0.0000000000000000000 ) ) ;
#14 = VERTEX_POINT ( 'NONE', #219 ) ;
#15 = ADVANCED_FACE ( 'NONE', ( #113, #193 ), #8, .T. ) ;
#16 = AXIS2_PLACEMENT_3D ( 'NONE', #80, #81, #191 ) ;
#17 = ORIENTED_EDGE ( 'NONE', *, *, #206, .T. ) ;
#18 = CARTESIAN_POINT ( 'NONE',  ( 1.047444401652940007E-14, 0.2349999999999994871, 3.000000000000000000 ) ) ;
#19 = APPROVAL_PERSON_ORGANIZATION ( #172, #151, #163 ) ;
#20 = EDGE_LOOP ( 'NONE', ( #234 ) ) ;
#21 = CARTESIAN_POINT ( 'NONE',  ( 1.326762908760390423E-13, 1.199999999999998845, 38.00000000000000000 ) ) ;
#22 = ORIENTED_EDGE ( 'NONE', *, *, #38, .F. ) ;
#23 = DIRECTION ( 'NONE',  ( -3.491481338843133355E-15, 1.224646799147353207E-16, -1.000000000000000000 ) ) ;
#24 = CALENDAR_DATE ( 2021, 1, 12 ) ;
#25 = CIRCLE ( 'NONE', #264, 0.1772649730810376134 ) ;
#26 = FACE_BOUND ( 'NONE', #261, .T. ) ;
#27 = PERSON_AND_ORGANIZATION_ROLE ( 'creator' ) ;
#28 = CARTESIAN_POINT ( 'NONE',  ( 1.047444401652940007E-14, -3.673940397442059868E-16, 3.000000000000000000 ) ) ;
#29 = DIRECTION ( 'NONE',  ( 4.275831445896957731E-31, 1.000000000000000000, 1.224646799147353207E-16 ) ) ;
#30 = DIRECTION ( 'NONE',  ( -3.491481338843133355E-15, 1.224646799147353207E-16, -1.000000000000000000 ) ) ;
#31 = PLANE ( 'NONE',  #137 ) ;
#32 = DATE_TIME_ROLE ( 'creation_date' ) ;
#33 = APPROVAL_PERSON_ORGANIZATION ( #101, #2, #175 ) ;
#34 = AXIS2_PLACEMENT_3D ( 'NONE', #47, #226, #117 ) ;
#35 = CARTESIAN_POINT ( 'NONE',  ( 1.047444401652940007E-14, 1.762217744627676052E-33, 3.000000000000000000 ) ) ;
#36 = CARTESIAN_POINT ( 'NONE',  ( 4.311682268659095918E-14, 1.499999999999995559, 12.34914882886851650 ) ) ;
#37 = AXIS2_PLACEMENT_3D ( 'NONE', #75, #165, #189 ) ;
#38 = EDGE_CURVE ( 'NONE', #61, #61, #253, .T. ) ;
#39 = CARTESIAN_POINT ( 'NONE',  ( 4.311682268659095918E-14, -1.512334558546811352E-15, 12.34914882886851650 ) ) ;
#40 = CC_DESIGN_PERSON_AND_ORGANIZATION_ASSIGNMENT ( #124, #53, ( #115 ) ) ;
#41 = EDGE_LOOP ( 'NONE', ( #178 ) ) ;
#42 = VERTEX_POINT ( 'NONE', #223 ) ;
#43 = ORIENTED_EDGE ( 'NONE', *, *, #206, .F. ) ;
#44 = SECURITY_CLASSIFICATION ( '', '', #143 ) ;
#45 = CLOSED_SHELL ( 'NONE', ( #251, #176, #15, #150 ) ) ;
#46 = AXIS2_PLACEMENT_3D ( 'NONE', #28, #118, #59 ) ;
#47 = CARTESIAN_POINT ( 'NONE',  ( 1.326762908760390423E-13, -4.653657836759941941E-15, 38.00000000000000000 ) ) ;
#48 = VERTEX_POINT ( 'NONE', #66 ) ;
#49 = CARTESIAN_POINT ( 'NONE',  ( 1.745740669421566678E-14, -4.336808689942017736E-16, 5.000000000000000000 ) ) ;
#50 = DIRECTION ( 'NONE',  ( 0.0000000000000000000, 0.0000000000000000000, 1.000000000000000000 ) ) ;
#51 = FACE_OUTER_BOUND ( 'NONE', #111, .T. ) ;
#52 = CARTESIAN_POINT ( 'NONE',  ( 1.047444401652940007E-14, 1.762217744627676052E-33, 3.000000000000000000 ) ) ;
#53 = PERSON_AND_ORGANIZATION_ROLE ( 'design_supplier' ) ;
#54 = PLANE ( 'NONE',  #132 ) ;
#55 = FACE_OUTER_BOUND ( 'NONE', #107, .T. ) ;
#56 = ADVANCED_FACE ( 'NONE', ( #10, #55 ), #138, .T. ) ;
#57 = CARTESIAN_POINT ( 'NONE',  ( 3.491481338843133355E-16, -1.224646799147353115E-17, 0.09999999999999999167 ) ) ;
#58 = CALENDAR_DATE ( 2021, 1, 12 ) ;
#59 = DIRECTION ( 'NONE',  ( 0.0000000000000000000, 1.000000000000000000, 0.0000000000000000000 ) ) ;
#60 = CIRCLE ( 'NONE', #221, 0.2349999999999998479 ) ;
#61 = VERTEX_POINT ( 'NONE', #36 ) ;
#62 = CC_DESIGN_APPROVAL ( #151, ( #183 ) ) ;
#63 = APPLICATION_CONTEXT ( 'configuration controlled 3d designs of mechanical parts and assemblies' ) ;
#64 = ORIENTED_EDGE ( 'NONE', *, *, #256, .F. ) ;
#65 =( LENGTH_UNIT ( ) NAMED_UNIT ( * ) SI_UNIT ( .MILLI., .METRE. ) );
#66 = CARTESIAN_POINT ( 'NONE',  ( 1.316288464743861212E-13, 1.499999999999998668, 37.69999999999999574 ) ) ;
#67 = DIRECTION ( 'NONE',  ( -4.097723285930300006E-31, -1.000000000000000000, -1.153406566473943971E-16 ) ) ;
#68 = CIRCLE ( 'NONE', #16, 0.2349999999999993761 ) ;
#69 = FACE_OUTER_BOUND ( 'NONE', #268, .T. ) ;
#70 = COORDINATED_UNIVERSAL_TIME_OFFSET ( 1, 0, .AHEAD. ) ;
#71 = CARTESIAN_POINT ( 'NONE',  ( 1.326762908760390423E-13, 8.998558695971103225E-33, 38.00000000000000000 ) ) ;
#72 = DIRECTION ( 'NONE',  ( -3.491481338843133355E-15, 1.224646799147353207E-16, -1.000000000000000000 ) ) ;
#73 = PERSON_AND_ORGANIZATION_ROLE ( 'design_owner' ) ;
#74 = EDGE_CURVE ( 'NONE', #155, #155, #110, .T. ) ;
#75 = CARTESIAN_POINT ( 'NONE',  ( 4.311682268659095918E-14, -1.512334558546811352E-15, 12.34914882886851650 ) ) ;
#76 = APPROVAL_DATE_TIME ( #247, #84 ) ;
#77 = DIRECTION ( 'NONE',  ( 3.491481338843133355E-15, -1.224646799147353207E-16, 1.000000000000000000 ) ) ;
#78 = FACE_BOUND ( 'NONE', #179, .T. ) ;
#79 = COORDINATED_UNIVERSAL_TIME_OFFSET ( 1, 0, .AHEAD. ) ;
#80 = CARTESIAN_POINT ( 'NONE',  ( 3.491481338843133355E-16, -1.224646799147353115E-17, 0.09999999999999999167 ) ) ;
#81 = DIRECTION ( 'NONE',  ( -3.491481338843133355E-15, 1.224646799147353207E-16, -1.000000000000000000 ) ) ;
#82 = MANIFOLD_SOLID_BREP ( 'Corps-Déplacer/Copier1[1]', #166 ) ;
#83 = ORIENTED_EDGE ( 'NONE', *, *, #266, .T. ) ;
#84 = APPROVAL ( #194, 'UNSPECIFIED' ) ;
#85 = CARTESIAN_POINT ( 'NONE',  ( 1.316288464743861212E-13, -4.616918432785521081E-15, 37.69999999999999574 ) ) ;
#86 = AXIS2_PLACEMENT_3D ( 'NONE', #35, #277, #120 ) ;
#87 = APPROVAL_DATE_TIME ( #233, #151 ) ;
#88 = DIRECTION ( 'NONE',  ( 0.0000000000000000000, 1.000000000000000000, 0.0000000000000000000 ) ) ;
#89 = CARTESIAN_POINT ( 'NONE',  ( 0.0000000000000000000, 0.0000000000000000000, 0.0000000000000000000 ) ) ;
#90 = APPLICATION_PROTOCOL_DEFINITION ( 'international standard', 'config_control_design', 1994, #164 ) ;
#91 = EDGE_CURVE ( 'NONE', #48, #48, #278, .T. ) ;
#92 = ORIENTED_EDGE ( 'NONE', *, *, #256, .T. ) ;
#93 = EDGE_LOOP ( 'NONE', ( #22 ) ) ;
#94 = PERSON_AND_ORGANIZATION ( #281, #229 ) ;
#95 = CIRCLE ( 'NONE', #203, 0.2653844939755818366 ) ;
#96 = PLANE ( 'NONE',  #86 ) ;
#97 = CIRCLE ( 'NONE', #46, 0.2349999999999998479 ) ;
#98 = CC_DESIGN_DATE_AND_TIME_ASSIGNMENT ( #279, #198, ( #44 ) ) ;
#99 = CARTESIAN_POINT ( 'NONE',  ( 0.0000000000000000000, 0.0000000000000000000, 0.0000000000000000000 ) ) ;
#100 =( NAMED_UNIT ( * ) SI_UNIT ( $, .STERADIAN. ) SOLID_ANGLE_UNIT ( ) );
#101 = PERSON_AND_ORGANIZATION ( #281, #229 ) ;
#102 = COORDINATED_UNIVERSAL_TIME_OFFSET ( 1, 0, .AHEAD. ) ;
#103 = DATE_AND_TIME ( #197, #241 ) ;
#104 = CC_DESIGN_PERSON_AND_ORGANIZATION_ASSIGNMENT ( #213, #270, ( #44 ) ) ;
#105 = AXIS2_PLACEMENT_3D ( 'NONE', #99, #252, #196 ) ;
#106 = ADVANCED_FACE ( 'NONE', ( #217, #69 ), #272, .F. ) ;
#107 = EDGE_LOOP ( 'NONE', ( #133 ) ) ;
#108 = VERTEX_POINT ( 'NONE', #156 ) ;
#109 = CC_DESIGN_APPROVAL ( #2, ( #44 ) ) ;
#110 = CIRCLE ( 'NONE', #230, 0.2350000000000001532 ) ;
#111 = EDGE_LOOP ( 'NONE', ( #136 ) ) ;
#112 = VERTEX_POINT ( 'NONE', #18 ) ;
#113 = FACE_OUTER_BOUND ( 'NONE', #153, .T. ) ;
#114 = MECHANICAL_CONTEXT ( 'NONE', #63, 'mechanical' ) ;
#115 = PRODUCT_DEFINITION_FORMATION_WITH_SPECIFIED_SOURCE ( 'ANY', '', #127, .NOT_KNOWN. ) ;
#116 = CARTESIAN_POINT ( 'NONE',  ( -7.579551461559786062E-32, 2.658548775015770271E-33, -2.170869818846344637E-17 ) ) ;
#117 = DIRECTION ( 'NONE',  ( 0.0000000000000000000, 1.000000000000000000, 0.0000000000000000000 ) ) ;
#118 = DIRECTION ( 'NONE',  ( -3.491481338843133355E-15, 1.224646799147353207E-16, -1.000000000000000000 ) ) ;
#119 = FACE_OUTER_BOUND ( 'NONE', #144, .T. ) ;
#120 = DIRECTION ( 'NONE',  ( -4.275831445896958607E-31, -1.000000000000000000, -1.224646799147353207E-16 ) ) ;
#121 = ADVANCED_FACE ( 'NONE', ( #119, #78 ), #257, .T. ) ;
#122 = PRODUCT_DEFINITION_SHAPE ( 'NONE', 'NONE',  #183 ) ;
#123 = ORIENTED_EDGE ( 'NONE', *, *, #74, .F. ) ;
#124 = PERSON_AND_ORGANIZATION ( #281, #229 ) ;
#125 = AXIS2_PLACEMENT_3D ( 'NONE', #39, #131, #255 ) ;
#126 = CALENDAR_DATE ( 2021, 1, 12 ) ;
#127 = PRODUCT ( '327001', '327001', '', ( #114 ) ) ;
#128 = EDGE_CURVE ( 'NONE', #42, #42, #95, .T. ) ;
#129 = AXIS2_PLACEMENT_3D ( 'NONE', #274, #139, #231 ) ;
#130 = FACE_OUTER_BOUND ( 'NONE', #212, .T. ) ;
#131 = DIRECTION ( 'NONE',  ( 3.491481338843133355E-15, -1.224646799147353207E-16, 1.000000000000000000 ) ) ;
#132 = AXIS2_PLACEMENT_3D ( 'NONE', #195, #77, #170 ) ;
#133 = ORIENTED_EDGE ( 'NONE', *, *, #91, .T. ) ;
#134 = ORIENTED_EDGE ( 'NONE', *, *, #128, .T. ) ;
#135 = UNCERTAINTY_MEASURE_WITH_UNIT (LENGTH_MEASURE( 1.000000000000000082E-05 ), #65, 'distance_accuracy_value', 'NONE');
#136 = ORIENTED_EDGE ( 'NONE', *, *, #11, .T. ) ;
#137 = AXIS2_PLACEMENT_3D ( 'NONE', #52, #145, #168 ) ;
#138 = CYLINDRICAL_SURFACE ( 'NONE', #129, 1.500000000000000000 ) ;
#139 = DIRECTION ( 'NONE',  ( -3.491481338843133355E-15, 1.224646799147353207E-16, -1.000000000000000000 ) ) ;
#140 = FACE_BOUND ( 'NONE', #222, .T. ) ;
#141 = ORIENTED_EDGE ( 'NONE', *, *, #11, .F. ) ;
#142 = AXIS2_PLACEMENT_3D ( 'NONE', #57, #263, #67 ) ;
#143 = SECURITY_CLASSIFICATION_LEVEL ( 'unclassified' ) ;
#144 = EDGE_LOOP ( 'NONE', ( #192 ) ) ;
#145 = DIRECTION ( 'NONE',  ( 3.491481338843133355E-15, -1.224646799147353207E-16, 1.000000000000000000 ) ) ;
#146 = CARTESIAN_POINT ( 'NONE',  ( 0.0000000000000000000, 0.0000000000000000000, 0.0000000000000000000 ) ) ;
#147 = LOCAL_TIME ( 8, 27, 25.00000000000000000, #79 ) ;
#148 = COORDINATED_UNIVERSAL_TIME_OFFSET ( 1, 0, .AHEAD. ) ;
#149 = PLANE ( 'NONE',  #218 ) ;
#150 = ADVANCED_FACE ( 'NONE', ( #246 ), #31, .T. ) ;
#151 = APPROVAL ( #209, 'UNSPECIFIED' ) ;
#152 = EDGE_LOOP ( 'NONE', ( #43 ) ) ;
#153 = EDGE_LOOP ( 'NONE', ( #204 ) ) ;
#154 = CC_DESIGN_PERSON_AND_ORGANIZATION_ASSIGNMENT ( #9, #190, ( #115 ) ) ;
#155 = VERTEX_POINT ( 'NONE', #184 ) ;
#156 = CARTESIAN_POINT ( 'NONE',  ( 3.491481338843134341E-16, 0.2349999999999993761, 0.1000000000000000194 ) ) ;
#157 = AXIS2_PLACEMENT_3D ( 'NONE', #89, #159, #29 ) ;
#158 = FACE_OUTER_BOUND ( 'NONE', #41, .T. ) ;
#159 = DIRECTION ( 'NONE',  ( -3.491481338843133355E-15, 1.224646799147353207E-16, -1.000000000000000000 ) ) ;
#160 =( NAMED_UNIT ( * ) PLANE_ANGLE_UNIT ( ) SI_UNIT ( $, .RADIAN. ) );
#161 = DIRECTION ( 'NONE',  ( -3.491481338843133355E-15, 1.224646799147353207E-16, -1.000000000000000000 ) ) ;
#162 = DIRECTION ( 'NONE',  ( 0.0000000000000000000, 1.000000000000000000, 0.0000000000000000000 ) ) ;
#163 = APPROVAL_ROLE ( '' ) ;
#164 = APPLICATION_CONTEXT ( 'configuration controlled 3d designs of mechanical parts and assemblies' ) ;
#165 = DIRECTION ( 'NONE',  ( -3.491481338843133355E-15, 1.224646799147353207E-16, -1.000000000000000000 ) ) ;
#166 = CLOSED_SHELL ( 'NONE', ( #232, #180, #106, #282, #56, #121, #273 ) ) ;
#167 = DIRECTION ( 'NONE',  ( -3.491481338843133355E-15, 1.224646799147353207E-16, -1.000000000000000000 ) ) ;
#168 = DIRECTION ( 'NONE',  ( -4.275831445896958607E-31, -1.000000000000000000, -1.224646799147353207E-16 ) ) ;
#169 = APPROVAL_ROLE ( '' ) ;
#170 = DIRECTION ( 'NONE',  ( -4.275831445896958607E-31, -1.000000000000000000, -1.224646799147353207E-16 ) ) ;
#171 = FACE_OUTER_BOUND ( 'NONE', #227, .T. ) ;
#172 = PERSON_AND_ORGANIZATION ( #281, #229 ) ;
#173 = AXIS2_PLACEMENT_3D ( 'NONE', #237, #167, #88 ) ;
#174 = CC_DESIGN_PERSON_AND_ORGANIZATION_ASSIGNMENT ( #250, #73, ( #127 ) ) ;
#175 = APPROVAL_ROLE ( '' ) ;
#176 = ADVANCED_FACE ( 'NONE', ( #26, #158 ), #186, .T. ) ;
#177 = CONICAL_SURFACE ( 'NONE', #125, 1.499999999999996891, 0.1745329251994260367 ) ;
#178 = ORIENTED_EDGE ( 'NONE', *, *, #201, .T. ) ;
#179 = EDGE_LOOP ( 'NONE', ( #92 ) ) ;
#180 = ADVANCED_FACE ( 'NONE', ( #243, #171 ), #276, .T. ) ;
#181 = CARTESIAN_POINT ( 'NONE',  ( 1.047444401652940007E-14, 0.2349999999999994871, 3.000000000000000000 ) ) ;
#182 = DIRECTION ( 'NONE',  ( 4.401240156183898403E-31, 1.000000000000000000, 1.224646799147353207E-16 ) ) ;
#183 = PRODUCT_DEFINITION ( 'UNKNOWN', '', #115, #207 ) ;
#184 = CARTESIAN_POINT ( 'NONE',  ( 1.745740669421566678E-14, 0.2349999999999995426, 5.000000000000000000 ) ) ;
#185 = LOCAL_TIME ( 8, 27, 25.00000000000000000, #216 ) ;
#186 = CONICAL_SURFACE ( 'NONE', #142, 0.2349999999999993761, 0.5235987755982925984 ) ;
#187 = DIRECTION ( 'NONE',  ( -3.491481338843133355E-15, 1.224646799147353207E-16, -1.000000000000000000 ) ) ;
#188 = PERSON_AND_ORGANIZATION ( #281, #229 ) ;
#189 = DIRECTION ( 'NONE',  ( 0.0000000000000000000, 1.000000000000000000, 0.0000000000000000000 ) ) ;
#190 = PERSON_AND_ORGANIZATION_ROLE ( 'creator' ) ;
#191 = DIRECTION ( 'NONE',  ( 4.097723285930300006E-31, 1.000000000000000000, 1.153406566473943971E-16 ) ) ;
#192 = ORIENTED_EDGE ( 'NONE', *, *, #91, .F. ) ;
#193 = FACE_OUTER_BOUND ( 'NONE', #4, .T. ) ;
#194 = APPROVAL_STATUS ( 'not_yet_approved' ) ;
#195 = CARTESIAN_POINT ( 'NONE',  ( -3.789775730779893031E-32, 1.329274387507885136E-33, -1.085434909423172318E-17 ) ) ;
#196 = DIRECTION ( 'NONE',  ( 4.275831445896958607E-31, 1.000000000000000000, 1.224646799147353207E-16 ) ) ;
#197 = CALENDAR_DATE ( 2021, 1, 12 ) ;
#198 = DATE_TIME_ROLE ( 'classification_date' ) ;
#199 = AXIS2_PLACEMENT_3D ( 'NONE', #49, #249, #182 ) ;
#200 = SHAPE_DEFINITION_REPRESENTATION ( #122, #3 ) ;
#201 = EDGE_CURVE ( 'NONE', #108, #108, #68, .T. ) ;
#202 = APPROVAL_PERSON_ORGANIZATION ( #94, #84, #169 ) ;
#203 = AXIS2_PLACEMENT_3D ( 'NONE', #210, #12, #162 ) ;
#204 = ORIENTED_EDGE ( 'NONE', *, *, #201, .F. ) ;
#205 = ORIENTED_EDGE ( 'NONE', *, *, #74, .T. ) ;
#206 = EDGE_CURVE ( 'NONE', #260, #260, #60, .T. ) ;
#207 = DESIGN_CONTEXT ( 'detailed design', #164, 'design' ) ;
#208 = ORIENTED_EDGE ( 'NONE', *, *, #128, .F. ) ;
#209 = APPROVAL_STATUS ( 'not_yet_approved' ) ;
#210 = CARTESIAN_POINT ( 'NONE',  ( 1.866998543791203065E-14, -6.548549365651905381E-16, 5.347296355333847728 ) ) ;
#211 = CALENDAR_DATE ( 2021, 1, 12 ) ;
#212 = EDGE_LOOP ( 'NONE', ( #240 ) ) ;
#213 = PERSON_AND_ORGANIZATION ( #281, #229 ) ;
#214 = CC_DESIGN_PERSON_AND_ORGANIZATION_ASSIGNMENT ( #188, #27, ( #183 ) ) ;
#215 = DIRECTION ( 'NONE',  ( 4.275831445896958607E-31, 1.000000000000000000, 1.224646799147353207E-16 ) ) ;
#216 = COORDINATED_UNIVERSAL_TIME_OFFSET ( 1, 0, .AHEAD. ) ;
#217 = FACE_OUTER_BOUND ( 'NONE', #235, .T. ) ;
#218 = AXIS2_PLACEMENT_3D ( 'NONE', #71, #161, #245 ) ;
#219 = CARTESIAN_POINT ( 'NONE',  ( -1.069105884036878258E-47, 0.1772649730810376134, 0.0000000000000000000 ) ) ;
#220 = CC_DESIGN_SECURITY_CLASSIFICATION ( #44, ( #115 ) ) ;
#221 = AXIS2_PLACEMENT_3D ( 'NONE', #248, #30, #228 ) ;
#222 = EDGE_LOOP ( 'NONE', ( #208 ) ) ;
#223 = CARTESIAN_POINT ( 'NONE',  ( 1.866998543791203065E-14, 0.2653844939755811705, 5.347296355333847728 ) ) ;
#224 = AXIS2_PLACEMENT_3D ( 'NONE', #146, #50, #275 ) ;
#225 = VERTEX_POINT ( 'NONE', #21 ) ;
#226 = DIRECTION ( 'NONE',  ( -3.491481338843133355E-15, 1.224646799147353207E-16, -1.000000000000000000 ) ) ;
#227 = EDGE_LOOP ( 'NONE', ( #205 ) ) ;
#228 = DIRECTION ( 'NONE',  ( 0.0000000000000000000, 1.000000000000000000, 0.0000000000000000000 ) ) ;
#229 = ORGANIZATION ( 'UNSPECIFIED', 'UNSPECIFIED', '' ) ;
#230 = AXIS2_PLACEMENT_3D ( 'NONE', #5, #72, #13 ) ;
#231 = DIRECTION ( 'NONE',  ( 4.275831445896959482E-31, 1.000000000000000000, 1.224646799147353207E-16 ) ) ;
#232 = ADVANCED_FACE ( 'NONE', ( #271 ), #96, .F. ) ;
#233 = DATE_AND_TIME ( #24, #185 ) ;
#234 = ORIENTED_EDGE ( 'NONE', *, *, #266, .F. ) ;
#235 = EDGE_LOOP ( 'NONE', ( #123 ) ) ;
#236 = APPLICATION_PROTOCOL_DEFINITION ( 'international standard', 'config_control_design', 1994, #63 ) ;
#237 = CARTESIAN_POINT ( 'NONE',  ( 1.326762908760390423E-13, -4.653657836759941941E-15, 38.00000000000000000 ) ) ;
#238 = LOCAL_TIME ( 8, 27, 25.00000000000000000, #148 ) ;
#239 = APPROVAL_DATE_TIME ( #103, #2 ) ;
#240 = ORIENTED_EDGE ( 'NONE', *, *, #38, .T. ) ;
#241 = LOCAL_TIME ( 8, 27, 25.00000000000000000, #102 ) ;
#242 = AXIS2_PLACEMENT_3D ( 'NONE', #85, #187, #265 ) ;
#243 = FACE_OUTER_BOUND ( 'NONE', #152, .T. ) ;
#244 = DATE_AND_TIME ( #211, #147 ) ;
#245 = DIRECTION ( 'NONE',  ( 4.275831445896958607E-31, 1.000000000000000000, 1.224646799147353207E-16 ) ) ;
#246 = FACE_OUTER_BOUND ( 'NONE', #20, .T. ) ;
#247 = DATE_AND_TIME ( #58, #262 ) ;
#248 = CARTESIAN_POINT ( 'NONE',  ( 1.047444401652940007E-14, -3.673940397442059868E-16, 3.000000000000000000 ) ) ;
#249 = DIRECTION ( 'NONE',  ( -3.491481338843133355E-15, 1.224646799147353207E-16, -1.000000000000000000 ) ) ;
#250 = PERSON_AND_ORGANIZATION ( #281, #229 ) ;
#251 = ADVANCED_FACE ( 'NONE', ( #51 ), #54, .F. ) ;
#252 = DIRECTION ( 'NONE',  ( -3.491481338843133355E-15, 1.224646799147353207E-16, -1.000000000000000000 ) ) ;
#253 = CIRCLE ( 'NONE', #37, 1.499999999999996891 ) ;
#254 = APPROVAL_STATUS ( 'not_yet_approved' ) ;
#255 = DIRECTION ( 'NONE',  ( 0.0000000000000000000, -1.000000000000000000, 0.0000000000000000000 ) ) ;
#256 = EDGE_CURVE ( 'NONE', #225, #225, #7, .T. ) ;
#257 = CONICAL_SURFACE ( 'NONE', #34, 1.200000000000003286, 0.7853981633974453924 ) ;
#258 = CC_DESIGN_DATE_AND_TIME_ASSIGNMENT ( #244, #32, ( #183 ) ) ;
#259 = EDGE_LOOP ( 'NONE', ( #17 ) ) ;
#260 = VERTEX_POINT ( 'NONE', #181 ) ;
#261 = EDGE_LOOP ( 'NONE', ( #141 ) ) ;
#262 = LOCAL_TIME ( 8, 27, 25.00000000000000000, #70 ) ;
#263 = DIRECTION ( 'NONE',  ( 3.491481338843133355E-15, -1.224646799147353207E-16, 1.000000000000000000 ) ) ;
#264 = AXIS2_PLACEMENT_3D ( 'NONE', #116, #23, #215 ) ;
#265 = DIRECTION ( 'NONE',  ( 0.0000000000000000000, 1.000000000000000000, 0.0000000000000000000 ) ) ;
#266 = EDGE_CURVE ( 'NONE', #112, #112, #97, .T. ) ;
#267 = FACE_OUTER_BOUND ( 'NONE', #269, .T. ) ;
#268 = EDGE_LOOP ( 'NONE', ( #134 ) ) ;
#269 = EDGE_LOOP ( 'NONE', ( #64 ) ) ;
#270 = PERSON_AND_ORGANIZATION_ROLE ( 'classification_officer' ) ;
#271 = FACE_OUTER_BOUND ( 'NONE', #259, .T. ) ;
#272 = TOROIDAL_SURFACE ( 'NONE', #199, 2.234999999999999876, 2.000000000000000000 ) ;
#273 = ADVANCED_FACE ( 'NONE', ( #267 ), #149, .F. ) ;
#274 = CARTESIAN_POINT ( 'NONE',  ( 0.0000000000000000000, 0.0000000000000000000, 0.0000000000000000000 ) ) ;
#275 = DIRECTION ( 'NONE',  ( 1.000000000000000000, 0.0000000000000000000, 0.0000000000000000000 ) ) ;
#276 = CYLINDRICAL_SURFACE ( 'NONE', #105, 0.2350000000000000144 ) ;
#277 = DIRECTION ( 'NONE',  ( 3.491481338843133355E-15, -1.224646799147353207E-16, 1.000000000000000000 ) ) ;
#278 = CIRCLE ( 'NONE', #242, 1.500000000000003331 ) ;
#279 = DATE_AND_TIME ( #126, #238 ) ;
#280 = MANIFOLD_SOLID_BREP ( 'Corps-Déplacer/Copier1[2]', #45 ) ;
#281 = PERSON ( 'UNSPECIFIED', 'UNSPECIFIED', 'UNSPECIFIED', ('UNSPECIFIED'), ('UNSPECIFIED'), ('UNSPECIFIED') ) ;
#282 = ADVANCED_FACE ( 'NONE', ( #140, #130 ), #177, .T. ) ;
#283 =( GEOMETRIC_REPRESENTATION_CONTEXT ( 3 ) GLOBAL_UNCERTAINTY_ASSIGNED_CONTEXT ( ( #135 ) ) GLOBAL_UNIT_ASSIGNED_CONTEXT ( ( #65, #160, #100 ) ) REPRESENTATION_CONTEXT ( 'NONE', 'WORKASPACE' ) );
ENDSEC;
END-ISO-10303-21;
