ISO-10303-21;
HEADER;
FILE_DESCRIPTION (( 'STEP AP203' ),
    '1' );
FILE_NAME ('327000.step',
    '2021-12-01T07:27:24',
    ( '' ),
    ( '' ),
    'SwSTEP 2.0',
    'SolidWorks 2019',
    '' );
FILE_SCHEMA (( 'CONFIG_CONTROL_DESIGN' ));
ENDSEC;

DATA;
#1 = EDGE_LOOP ( 'NONE', ( #158 ) ) ;
#2 = CARTESIAN_POINT ( 'NONE',  ( 1.326762908760390423E-13, 8.998558695971103225E-33, 38.00000000000000000 ) ) ;
#3 = VERTEX_POINT ( 'NONE', #159 ) ;
#4 = CIRCLE ( 'NONE', #93, 0.2149999999999993583 ) ;
#5 = EDGE_CURVE ( 'NONE', #67, #67, #169, .T. ) ;
#6 = AXIS2_PLACEMENT_3D ( 'NONE', #21, #230, #205 ) ;
#7 = DIRECTION ( 'NONE',  ( 0.0000000000000000000, 1.000000000000000000, 0.0000000000000000000 ) ) ;
#8 = VERTEX_POINT ( 'NONE', #155 ) ;
#9 = PRODUCT_DEFINITION ( 'UNKNOWN', '', #148, #180 ) ;
#10 = DIRECTION ( 'NONE',  ( -4.275831445896958607E-31, -1.000000000000000000, -1.224646799147353207E-16 ) ) ;
#11 = ADVANCED_FACE ( 'NONE', ( #229, #42 ), #191, .T. ) ;
#12 = EDGE_LOOP ( 'NONE', ( #115 ) ) ;
#13 = VERTEX_POINT ( 'NONE', #66 ) ;
#14 = ORIENTED_EDGE ( 'NONE', *, *, #111, .T. ) ;
#15 = COORDINATED_UNIVERSAL_TIME_OFFSET ( 1, 0, .AHEAD. ) ;
#16 = LOCAL_TIME ( 8, 27, 24.00000000000000000, #188 ) ;
#17 = SECURITY_CLASSIFICATION_LEVEL ( 'unclassified' ) ;
#18 = AXIS2_PLACEMENT_3D ( 'NONE', #278, #29, #78 ) ;
#19 = CC_DESIGN_APPROVAL ( #99, ( #228 ) ) ;
#20 = EDGE_CURVE ( 'NONE', #13, #13, #23, .T. ) ;
#21 = CARTESIAN_POINT ( 'NONE',  ( 1.326762908760390423E-13, -4.653657836759941941E-15, 38.00000000000000000 ) ) ;
#22 = CC_DESIGN_APPROVAL ( #221, ( #148 ) ) ;
#23 = CIRCLE ( 'NONE', #219, 0.2453844939755805699 ) ;
#24 = CARTESIAN_POINT ( 'NONE',  ( 1.047444401652940007E-14, 0.2149999999999994138, 3.000000000000000000 ) ) ;
#25 =( LENGTH_UNIT ( ) NAMED_UNIT ( * ) SI_UNIT ( .MILLI., .METRE. ) );
#26 = DIRECTION ( 'NONE',  ( -3.491481338843133355E-15, 1.224646799147353207E-16, -1.000000000000000000 ) ) ;
#27 = CIRCLE ( 'NONE', #18, 0.2149999999999998024 ) ;
#28 = PERSON_AND_ORGANIZATION_ROLE ( 'design_supplier' ) ;
#29 = DIRECTION ( 'NONE',  ( -3.491481338843133355E-15, 1.224646799147353207E-16, -1.000000000000000000 ) ) ;
#30 = AXIS2_PLACEMENT_3D ( 'NONE', #60, #162, #134 ) ;
#31 = APPROVAL_ROLE ( '' ) ;
#32 = FACE_OUTER_BOUND ( 'NONE', #176, .T. ) ;
#33 = PERSON_AND_ORGANIZATION ( #109, #201 ) ;
#34 = CALENDAR_DATE ( 2021, 1, 12 ) ;
#35 = PRODUCT ( '327000', '327000', '', ( #249 ) ) ;
#36 = AXIS2_PLACEMENT_3D ( 'NONE', #250, #185, #279 ) ;
#37 = MANIFOLD_SOLID_BREP ( 'Corps-Déplacer/Copier1[2]', #103 ) ;
#38 = AXIS2_PLACEMENT_3D ( 'NONE', #173, #177, #40 ) ;
#39 = ORIENTED_EDGE ( 'NONE', *, *, #271, .T. ) ;
#40 = DIRECTION ( 'NONE',  ( 4.275831445896958607E-31, 1.000000000000000000, 1.224646799147353207E-16 ) ) ;
#41 = CYLINDRICAL_SURFACE ( 'NONE', #153, 1.500000000000000000 ) ;
#42 = FACE_BOUND ( 'NONE', #267, .T. ) ;
#43 = DIRECTION ( 'NONE',  ( -3.491481338843133355E-15, 1.224646799147353207E-16, -1.000000000000000000 ) ) ;
#44 = DIRECTION ( 'NONE',  ( 0.0000000000000000000, -1.000000000000000000, 0.0000000000000000000 ) ) ;
#45 = CARTESIAN_POINT ( 'NONE',  ( 4.351284617940130282E-14, -1.526225192801727296E-15, 12.46257446526087875 ) ) ;
#46 = FACE_OUTER_BOUND ( 'NONE', #179, .T. ) ;
#47 = ADVANCED_FACE ( 'NONE', ( #132 ), #184, .F. ) ;
#48 = PERSON_AND_ORGANIZATION ( #109, #201 ) ;
#49 = DIRECTION ( 'NONE',  ( 3.491481338843133355E-15, -1.224646799147353207E-16, 1.000000000000000000 ) ) ;
#50 = APPLICATION_CONTEXT ( 'configuration controlled 3d designs of mechanical parts and assemblies' ) ;
#51 = FACE_OUTER_BOUND ( 'NONE', #102, .T. ) ;
#52 = PERSON_AND_ORGANIZATION ( #109, #201 ) ;
#53 = ADVANCED_FACE ( 'NONE', ( #172, #260 ), #245, .F. ) ;
#54 = AXIS2_PLACEMENT_3D ( 'NONE', #146, #58, #84 ) ;
#55 = DIRECTION ( 'NONE',  ( -3.491481338843133355E-15, 1.224646799147353207E-16, -1.000000000000000000 ) ) ;
#56 = COORDINATED_UNIVERSAL_TIME_OFFSET ( 1, 0, .AHEAD. ) ;
#57 = CIRCLE ( 'NONE', #87, 1.500000000000003331 ) ;
#58 = DIRECTION ( 'NONE',  ( -3.491481338843133355E-15, 1.224646799147353207E-16, -1.000000000000000000 ) ) ;
#59 = CARTESIAN_POINT ( 'NONE',  ( 0.0000000000000000000, 0.0000000000000000000, 0.0000000000000000000 ) ) ;
#60 = CARTESIAN_POINT ( 'NONE',  ( 1.047444401652940007E-14, -3.673940397442059868E-16, 3.000000000000000000 ) ) ;
#61 = ORIENTED_EDGE ( 'NONE', *, *, #75, .T. ) ;
#62 = EDGE_LOOP ( 'NONE', ( #39 ) ) ;
#63 = FACE_OUTER_BOUND ( 'NONE', #100, .T. ) ;
#64 = CC_DESIGN_APPROVAL ( #89, ( #9 ) ) ;
#65 = AXIS2_PLACEMENT_3D ( 'NONE', #2, #151, #262 ) ;
#66 = CARTESIAN_POINT ( 'NONE',  ( 1.866998543791203065E-14, 0.2453844939755799037, 5.347296355333847728 ) ) ;
#67 = VERTEX_POINT ( 'NONE', #137 ) ;
#68 = FACE_OUTER_BOUND ( 'NONE', #62, .T. ) ;
#69 = CARTESIAN_POINT ( 'NONE',  ( -3.362192586190197105E-32, 1.179298409241699649E-33, -9.629702295084369608E-18 ) ) ;
#70 = DIRECTION ( 'NONE',  ( -4.275831445896958607E-31, -1.000000000000000000, -1.224646799147353207E-16 ) ) ;
#71 =( GEOMETRIC_REPRESENTATION_CONTEXT ( 3 ) GLOBAL_UNCERTAINTY_ASSIGNED_CONTEXT ( ( #222 ) ) GLOBAL_UNIT_ASSIGNED_CONTEXT ( ( #25, #272, #246 ) ) REPRESENTATION_CONTEXT ( 'NONE', 'WORKASPACE' ) );
#72 = ORIENTED_EDGE ( 'NONE', *, *, #111, .F. ) ;
#73 = CARTESIAN_POINT ( 'NONE',  ( 1.745740669421566678E-14, 0.2149999999999994693, 5.000000000000000000 ) ) ;
#74 = DIRECTION ( 'NONE',  ( 1.000000000000000000, 0.0000000000000000000, 0.0000000000000000000 ) ) ;
#75 = EDGE_CURVE ( 'NONE', #154, #154, #197, .T. ) ;
#76 = APPROVAL_STATUS ( 'not_yet_approved' ) ;
#77 = APPROVAL_ROLE ( '' ) ;
#78 = DIRECTION ( 'NONE',  ( 0.0000000000000000000, 1.000000000000000000, 0.0000000000000000000 ) ) ;
#79 = DIRECTION ( 'NONE',  ( -3.491481338843133355E-15, 1.224646799147353207E-16, -1.000000000000000000 ) ) ;
#80 = PERSON_AND_ORGANIZATION_ROLE ( 'creator' ) ;
#81 = DIRECTION ( 'NONE',  ( 4.401835215307442890E-31, 1.000000000000000000, 1.224646799147353207E-16 ) ) ;
#82 = CALENDAR_DATE ( 2021, 1, 12 ) ;
#83 = CARTESIAN_POINT ( 'NONE',  ( 0.0000000000000000000, 0.0000000000000000000, 0.0000000000000000000 ) ) ;
#84 = DIRECTION ( 'NONE',  ( 0.0000000000000000000, 1.000000000000000000, 0.0000000000000000000 ) ) ;
#85 = CC_DESIGN_PERSON_AND_ORGANIZATION_ASSIGNMENT ( #210, #236, ( #148 ) ) ;
#86 = ORIENTED_EDGE ( 'NONE', *, *, #5, .T. ) ;
#87 = AXIS2_PLACEMENT_3D ( 'NONE', #94, #26, #118 ) ;
#88 = EDGE_LOOP ( 'NONE', ( #114 ) ) ;
#89 = APPROVAL ( #101, 'UNSPECIFIED' ) ;
#90 = PLANE ( 'NONE',  #65 ) ;
#91 = ADVANCED_FACE ( 'NONE', ( #255, #32 ), #112, .T. ) ;
#92 = DIRECTION ( 'NONE',  ( -3.491481338843133355E-15, 1.224646799147353207E-16, -1.000000000000000000 ) ) ;
#93 = AXIS2_PLACEMENT_3D ( 'NONE', #181, #264, #124 ) ;
#94 = CARTESIAN_POINT ( 'NONE',  ( 1.316288464743861212E-13, -4.616918432785521081E-15, 37.69999999999999574 ) ) ;
#95 = AXIS2_PLACEMENT_3D ( 'NONE', #195, #79, #81 ) ;
#96 = EDGE_LOOP ( 'NONE', ( #168 ) ) ;
#97 = PRODUCT_DEFINITION_SHAPE ( 'NONE', 'NONE',  #9 ) ;
#98 = EDGE_LOOP ( 'NONE', ( #72 ) ) ;
#99 = APPROVAL ( #189, 'UNSPECIFIED' ) ;
#100 = EDGE_LOOP ( 'NONE', ( #147 ) ) ;
#101 = APPROVAL_STATUS ( 'not_yet_approved' ) ;
#102 = EDGE_LOOP ( 'NONE', ( #211 ) ) ;
#103 = CLOSED_SHELL ( 'NONE', ( #47, #149, #144, #226 ) ) ;
#104 = CARTESIAN_POINT ( 'NONE',  ( 1.047444401652940007E-14, 0.2149999999999994138, 3.000000000000000000 ) ) ;
#105 = PERSON_AND_ORGANIZATION_ROLE ( 'classification_officer' ) ;
#106 = CONICAL_SURFACE ( 'NONE', #36, 0.2149999999999993583, 0.5235987755982925984 ) ;
#107 = ADVANCED_FACE ( 'NONE', ( #127, #217 ), #164, .T. ) ;
#108 = CALENDAR_DATE ( 2021, 1, 12 ) ;
#109 = PERSON ( 'UNSPECIFIED', 'UNSPECIFIED', 'UNSPECIFIED', ('UNSPECIFIED'), ('UNSPECIFIED'), ('UNSPECIFIED') ) ;
#110 = FACE_OUTER_BOUND ( 'NONE', #88, .T. ) ;
#111 = EDGE_CURVE ( 'NONE', #8, #8, #280, .T. ) ;
#112 = CYLINDRICAL_SURFACE ( 'NONE', #253, 0.2149999999999999689 ) ;
#113 = ADVANCED_FACE ( 'NONE', ( #63, #223 ), #41, .T. ) ;
#114 = ORIENTED_EDGE ( 'NONE', *, *, #215, .T. ) ;
#115 = ORIENTED_EDGE ( 'NONE', *, *, #5, .F. ) ;
#116 = VERTEX_POINT ( 'NONE', #104 ) ;
#117 = ORIENTED_EDGE ( 'NONE', *, *, #215, .F. ) ;
#118 = DIRECTION ( 'NONE',  ( 0.0000000000000000000, 1.000000000000000000, 0.0000000000000000000 ) ) ;
#119 = CC_DESIGN_DATE_AND_TIME_ASSIGNMENT ( #192, #213, ( #228 ) ) ;
#120 = APPLICATION_PROTOCOL_DEFINITION ( 'international standard', 'config_control_design', 1994, #50 ) ;
#121 = CC_DESIGN_DATE_AND_TIME_ASSIGNMENT ( #277, #252, ( #9 ) ) ;
#122 = ADVANCED_FACE ( 'NONE', ( #225 ), #90, .F. ) ;
#123 = AXIS2_PLACEMENT_3D ( 'NONE', #83, #258, #203 ) ;
#124 = DIRECTION ( 'NONE',  ( 4.478906847412189723E-31, 1.000000000000000000, 1.260700200564543789E-16 ) ) ;
#125 = PERSON_AND_ORGANIZATION ( #109, #201 ) ;
#126 = COORDINATED_UNIVERSAL_TIME_OFFSET ( 1, 0, .AHEAD. ) ;
#127 = FACE_BOUND ( 'NONE', #261, .T. ) ;
#128 = EDGE_CURVE ( 'NONE', #3, #3, #204, .T. ) ;
#129 = AXIS2_PLACEMENT_3D ( 'NONE', #45, #281, #171 ) ;
#130 = DIRECTION ( 'NONE',  ( 4.275831445896959482E-31, 1.000000000000000000, 1.224646799147353207E-16 ) ) ;
#131 = CARTESIAN_POINT ( 'NONE',  ( 4.351284617940130282E-14, -1.526225192801727296E-15, 12.46257446526087875 ) ) ;
#132 = FACE_OUTER_BOUND ( 'NONE', #239, .T. ) ;
#133 = CARTESIAN_POINT ( 'NONE',  ( 1.316288464743861212E-13, 1.499999999999998668, 37.69999999999999574 ) ) ;
#134 = DIRECTION ( 'NONE',  ( 0.0000000000000000000, 1.000000000000000000, 0.0000000000000000000 ) ) ;
#135 = PERSON_AND_ORGANIZATION_ROLE ( 'design_owner' ) ;
#136 = EDGE_CURVE ( 'NONE', #116, #116, #27, .T. ) ;
#137 = CARTESIAN_POINT ( 'NONE',  ( 1.326762908760390423E-13, 1.199999999999998845, 38.00000000000000000 ) ) ;
#138 = LOCAL_TIME ( 8, 27, 24.00000000000000000, #56 ) ;
#139 = DATE_AND_TIME ( #108, #233 ) ;
#140 = APPROVAL_DATE_TIME ( #256, #99 ) ;
#141 = CC_DESIGN_PERSON_AND_ORGANIZATION_ASSIGNMENT ( #125, #28, ( #148 ) ) ;
#142 = LOCAL_TIME ( 8, 27, 24.00000000000000000, #126 ) ;
#143 = PERSON_AND_ORGANIZATION ( #109, #201 ) ;
#144 = ADVANCED_FACE ( 'NONE', ( #216, #110 ), #145, .T. ) ;
#145 = CYLINDRICAL_SURFACE ( 'NONE', #123, 0.2149999999999995803 ) ;
#146 = CARTESIAN_POINT ( 'NONE',  ( 1.745740669421566678E-14, -6.123233995736766282E-16, 5.000000000000000000 ) ) ;
#147 = ORIENTED_EDGE ( 'NONE', *, *, #128, .F. ) ;
#148 = PRODUCT_DEFINITION_FORMATION_WITH_SPECIFIED_SOURCE ( 'ANY', '', #35, .NOT_KNOWN. ) ;
#149 = ADVANCED_FACE ( 'NONE', ( #200, #68 ), #106, .T. ) ;
#150 = EDGE_LOOP ( 'NONE', ( #270 ) ) ;
#151 = DIRECTION ( 'NONE',  ( -3.491481338843133355E-15, 1.224646799147353207E-16, -1.000000000000000000 ) ) ;
#152 = DIRECTION ( 'NONE',  ( 3.491481338843133355E-15, -1.224646799147353207E-16, 1.000000000000000000 ) ) ;
#153 = AXIS2_PLACEMENT_3D ( 'NONE', #175, #241, #130 ) ;
#154 = VERTEX_POINT ( 'NONE', #73 ) ;
#155 = CARTESIAN_POINT ( 'NONE',  ( 0.0000000000000000000, 0.1572649730810376234, 0.0000000000000000000 ) ) ;
#156 = CARTESIAN_POINT ( 'NONE',  ( 3.491481338843134341E-16, 0.2149999999999993583, 0.1000000000000000194 ) ) ;
#157 = AXIS2_PLACEMENT_3D ( 'NONE', #243, #43, #266 ) ;
#158 = ORIENTED_EDGE ( 'NONE', *, *, #128, .T. ) ;
#159 = CARTESIAN_POINT ( 'NONE',  ( 4.351284617940130282E-14, 1.499999999999995559, 12.46257446526087875 ) ) ;
#160 = COORDINATED_UNIVERSAL_TIME_OFFSET ( 1, 0, .AHEAD. ) ;
#161 = AXIS2_PLACEMENT_3D ( 'NONE', #234, #227, #74 ) ;
#162 = DIRECTION ( 'NONE',  ( -3.491481338843133355E-15, 1.224646799147353207E-16, -1.000000000000000000 ) ) ;
#163 = EDGE_LOOP ( 'NONE', ( #208 ) ) ;
#164 = CONICAL_SURFACE ( 'NONE', #265, 1.499999999999996891, 0.1745329251994261199 ) ;
#165 = CC_DESIGN_PERSON_AND_ORGANIZATION_ASSIGNMENT ( #143, #105, ( #228 ) ) ;
#166 = APPROVAL_PERSON_ORGANIZATION ( #273, #99, #77 ) ;
#167 = CC_DESIGN_PERSON_AND_ORGANIZATION_ASSIGNMENT ( #33, #80, ( #9 ) ) ;
#168 = ORIENTED_EDGE ( 'NONE', *, *, #136, .F. ) ;
#169 = CIRCLE ( 'NONE', #157, 1.200000000000003286 ) ;
#170 = ADVANCED_BREP_SHAPE_REPRESENTATION ( '327000', ( #237, #37, #161 ), #71 ) ;
#171 = DIRECTION ( 'NONE',  ( 0.0000000000000000000, 1.000000000000000000, 0.0000000000000000000 ) ) ;
#172 = FACE_OUTER_BOUND ( 'NONE', #182, .T. ) ;
#173 = CARTESIAN_POINT ( 'NONE',  ( -6.724385172380394209E-32, 2.358596818483399297E-33, -1.925940459016873922E-17 ) ) ;
#174 = ORIENTED_EDGE ( 'NONE', *, *, #20, .T. ) ;
#175 = CARTESIAN_POINT ( 'NONE',  ( 0.0000000000000000000, 0.0000000000000000000, 0.0000000000000000000 ) ) ;
#176 = EDGE_LOOP ( 'NONE', ( #61 ) ) ;
#177 = DIRECTION ( 'NONE',  ( -3.491481338843133355E-15, 1.224646799147353207E-16, -1.000000000000000000 ) ) ;
#178 = APPLICATION_CONTEXT ( 'configuration controlled 3d designs of mechanical parts and assemblies' ) ;
#179 = EDGE_LOOP ( 'NONE', ( #117 ) ) ;
#180 = DESIGN_CONTEXT ( 'detailed design', #50, 'design' ) ;
#181 = CARTESIAN_POINT ( 'NONE',  ( 3.491481338843133355E-16, -1.224646799147353115E-17, 0.09999999999999999167 ) ) ;
#182 = EDGE_LOOP ( 'NONE', ( #268 ) ) ;
#183 = PLANE ( 'NONE',  #198 ) ;
#184 = PLANE ( 'NONE',  #235 ) ;
#185 = DIRECTION ( 'NONE',  ( 3.491481338843133355E-15, -1.224646799147353207E-16, 1.000000000000000000 ) ) ;
#186 = APPROVAL_ROLE ( '' ) ;
#187 = VERTEX_POINT ( 'NONE', #156 ) ;
#188 = COORDINATED_UNIVERSAL_TIME_OFFSET ( 1, 0, .AHEAD. ) ;
#189 = APPROVAL_STATUS ( 'not_yet_approved' ) ;
#190 = CC_DESIGN_SECURITY_CLASSIFICATION ( #228, ( #148 ) ) ;
#191 = CONICAL_SURFACE ( 'NONE', #6, 1.200000000000003286, 0.7853981633974453924 ) ;
#192 = DATE_AND_TIME ( #196, #138 ) ;
#193 = DIRECTION ( 'NONE',  ( -4.275831445896958607E-31, -1.000000000000000000, -1.224646799147353207E-16 ) ) ;
#194 = APPROVAL_DATE_TIME ( #214, #89 ) ;
#195 = CARTESIAN_POINT ( 'NONE',  ( 1.745740669421566678E-14, -4.336808689942017736E-16, 5.000000000000000000 ) ) ;
#196 = CALENDAR_DATE ( 2021, 1, 12 ) ;
#197 = CIRCLE ( 'NONE', #54, 0.2150000000000001077 ) ;
#198 = AXIS2_PLACEMENT_3D ( 'NONE', #251, #202, #70 ) ;
#199 = EDGE_LOOP ( 'NONE', ( #174 ) ) ;
#200 = FACE_BOUND ( 'NONE', #98, .T. ) ;
#201 = ORGANIZATION ( 'UNSPECIFIED', 'UNSPECIFIED', '' ) ;
#202 = DIRECTION ( 'NONE',  ( 3.491481338843133355E-15, -1.224646799147353207E-16, 1.000000000000000000 ) ) ;
#203 = DIRECTION ( 'NONE',  ( 4.275831445896958607E-31, 1.000000000000000000, 1.224646799147353207E-16 ) ) ;
#204 = CIRCLE ( 'NONE', #129, 1.499999999999996891 ) ;
#205 = DIRECTION ( 'NONE',  ( 0.0000000000000000000, 1.000000000000000000, 0.0000000000000000000 ) ) ;
#206 = ORIENTED_EDGE ( 'NONE', *, *, #259, .T. ) ;
#207 = VERTEX_POINT ( 'NONE', #133 ) ;
#208 = ORIENTED_EDGE ( 'NONE', *, *, #271, .F. ) ;
#209 = PERSON_AND_ORGANIZATION ( #109, #201 ) ;
#210 = PERSON_AND_ORGANIZATION ( #109, #201 ) ;
#211 = ORIENTED_EDGE ( 'NONE', *, *, #136, .T. ) ;
#212 = APPROVAL_DATE_TIME ( #139, #221 ) ;
#213 = DATE_TIME_ROLE ( 'classification_date' ) ;
#214 = DATE_AND_TIME ( #34, #16 ) ;
#215 = EDGE_CURVE ( 'NONE', #247, #247, #263, .T. ) ;
#216 = FACE_OUTER_BOUND ( 'NONE', #163, .T. ) ;
#217 = FACE_OUTER_BOUND ( 'NONE', #1, .T. ) ;
#218 = EDGE_LOOP ( 'NONE', ( #206 ) ) ;
#219 = AXIS2_PLACEMENT_3D ( 'NONE', #244, #92, #7 ) ;
#220 = ORIENTED_EDGE ( 'NONE', *, *, #20, .F. ) ;
#221 = APPROVAL ( #76, 'UNSPECIFIED' ) ;
#222 = UNCERTAINTY_MEASURE_WITH_UNIT (LENGTH_MEASURE( 1.000000000000000082E-05 ), #25, 'distance_accuracy_value', 'NONE');
#223 = FACE_OUTER_BOUND ( 'NONE', #218, .T. ) ;
#224 = DIRECTION ( 'NONE',  ( 3.491481338843133355E-15, -1.224646799147353207E-16, 1.000000000000000000 ) ) ;
#225 = FACE_OUTER_BOUND ( 'NONE', #12, .T. ) ;
#226 = ADVANCED_FACE ( 'NONE', ( #46 ), #231, .T. ) ;
#227 = DIRECTION ( 'NONE',  ( 0.0000000000000000000, 0.0000000000000000000, 1.000000000000000000 ) ) ;
#228 = SECURITY_CLASSIFICATION ( '', '', #17 ) ;
#229 = FACE_OUTER_BOUND ( 'NONE', #150, .T. ) ;
#230 = DIRECTION ( 'NONE',  ( -3.491481338843133355E-15, 1.224646799147353207E-16, -1.000000000000000000 ) ) ;
#231 = PLANE ( 'NONE',  #283 ) ;
#232 = CARTESIAN_POINT ( 'NONE',  ( 1.047444401652940007E-14, 1.612241766361489881E-33, 3.000000000000000000 ) ) ;
#233 = LOCAL_TIME ( 8, 27, 24.00000000000000000, #15 ) ;
#234 = CARTESIAN_POINT ( 'NONE',  ( 0.0000000000000000000, 0.0000000000000000000, 0.0000000000000000000 ) ) ;
#235 = AXIS2_PLACEMENT_3D ( 'NONE', #69, #224, #193 ) ;
#236 = PERSON_AND_ORGANIZATION_ROLE ( 'creator' ) ;
#237 = MANIFOLD_SOLID_BREP ( 'Corps-Déplacer/Copier1[1]', #257 ) ;
#238 = DIRECTION ( 'NONE',  ( 4.275831445896958607E-31, 1.000000000000000000, 1.224646799147353207E-16 ) ) ;
#239 = EDGE_LOOP ( 'NONE', ( #14 ) ) ;
#240 = ADVANCED_FACE ( 'NONE', ( #51 ), #183, .F. ) ;
#241 = DIRECTION ( 'NONE',  ( -3.491481338843133355E-15, 1.224646799147353207E-16, -1.000000000000000000 ) ) ;
#242 = LOCAL_TIME ( 8, 27, 24.00000000000000000, #160 ) ;
#243 = CARTESIAN_POINT ( 'NONE',  ( 1.326762908760390423E-13, -4.653657836759941941E-15, 38.00000000000000000 ) ) ;
#244 = CARTESIAN_POINT ( 'NONE',  ( 1.866998543791203065E-14, -6.548549365651905381E-16, 5.347296355333847728 ) ) ;
#245 = TOROIDAL_SURFACE ( 'NONE', #95, 2.214999999999999858, 2.000000000000000444 ) ;
#246 =( NAMED_UNIT ( * ) SI_UNIT ( $, .STERADIAN. ) SOLID_ANGLE_UNIT ( ) );
#247 = VERTEX_POINT ( 'NONE', #24 ) ;
#248 = APPROVAL_PERSON_ORGANIZATION ( #209, #89, #186 ) ;
#249 = MECHANICAL_CONTEXT ( 'NONE', #178, 'mechanical' ) ;
#250 = CARTESIAN_POINT ( 'NONE',  ( 3.491481338843133355E-16, -1.224646799147353115E-17, 0.09999999999999999167 ) ) ;
#251 = CARTESIAN_POINT ( 'NONE',  ( 1.047444401652940007E-14, 1.612241766361489881E-33, 3.000000000000000000 ) ) ;
#252 = DATE_TIME_ROLE ( 'creation_date' ) ;
#253 = AXIS2_PLACEMENT_3D ( 'NONE', #59, #55, #238 ) ;
#254 = CALENDAR_DATE ( 2021, 1, 12 ) ;
#255 = FACE_OUTER_BOUND ( 'NONE', #96, .T. ) ;
#256 = DATE_AND_TIME ( #82, #242 ) ;
#257 = CLOSED_SHELL ( 'NONE', ( #240, #91, #53, #107, #113, #11, #122 ) ) ;
#258 = DIRECTION ( 'NONE',  ( -3.491481338843133355E-15, 1.224646799147353207E-16, -1.000000000000000000 ) ) ;
#259 = EDGE_CURVE ( 'NONE', #207, #207, #57, .T. ) ;
#260 = FACE_OUTER_BOUND ( 'NONE', #199, .T. ) ;
#261 = EDGE_LOOP ( 'NONE', ( #220 ) ) ;
#262 = DIRECTION ( 'NONE',  ( 4.275831445896958607E-31, 1.000000000000000000, 1.224646799147353207E-16 ) ) ;
#263 = CIRCLE ( 'NONE', #30, 0.2149999999999998024 ) ;
#264 = DIRECTION ( 'NONE',  ( -3.491481338843133355E-15, 1.224646799147353207E-16, -1.000000000000000000 ) ) ;
#265 = AXIS2_PLACEMENT_3D ( 'NONE', #131, #152, #44 ) ;
#266 = DIRECTION ( 'NONE',  ( 0.0000000000000000000, 1.000000000000000000, 0.0000000000000000000 ) ) ;
#267 = EDGE_LOOP ( 'NONE', ( #86 ) ) ;
#268 = ORIENTED_EDGE ( 'NONE', *, *, #75, .F. ) ;
#269 = APPLICATION_PROTOCOL_DEFINITION ( 'international standard', 'config_control_design', 1994, #178 ) ;
#270 = ORIENTED_EDGE ( 'NONE', *, *, #259, .F. ) ;
#271 = EDGE_CURVE ( 'NONE', #187, #187, #4, .T. ) ;
#272 =( NAMED_UNIT ( * ) PLANE_ANGLE_UNIT ( ) SI_UNIT ( $, .RADIAN. ) );
#273 = PERSON_AND_ORGANIZATION ( #109, #201 ) ;
#274 = APPROVAL_PERSON_ORGANIZATION ( #52, #221, #31 ) ;
#275 = SHAPE_DEFINITION_REPRESENTATION ( #97, #170 ) ;
#276 = PRODUCT_RELATED_PRODUCT_CATEGORY ( 'detail', '', ( #35 ) ) ;
#277 = DATE_AND_TIME ( #254, #142 ) ;
#278 = CARTESIAN_POINT ( 'NONE',  ( 1.047444401652940007E-14, -3.673940397442059868E-16, 3.000000000000000000 ) ) ;
#279 = DIRECTION ( 'NONE',  ( -4.478906847412189723E-31, -1.000000000000000000, -1.260700200564543789E-16 ) ) ;
#280 = CIRCLE ( 'NONE', #38, 0.1572649730810376234 ) ;
#281 = DIRECTION ( 'NONE',  ( -3.491481338843133355E-15, 1.224646799147353207E-16, -1.000000000000000000 ) ) ;
#282 = CC_DESIGN_PERSON_AND_ORGANIZATION_ASSIGNMENT ( #48, #135, ( #35 ) ) ;
#283 = AXIS2_PLACEMENT_3D ( 'NONE', #232, #49, #10 ) ;
ENDSEC;
END-ISO-10303-21;
