ISO-10303-21;
HEADER;
FILE_DESCRIPTION (( 'STEP AP203' ),
    '1' );
FILE_NAME ('327.step',
    '2021-09-03T07:21:59',
    ( '' ),
    ( '' ),
    'SwSTEP 2.0',
    'SolidWorks 2019',
    '' );
FILE_SCHEMA (( 'CONFIG_CONTROL_DESIGN' ));
ENDSEC;

DATA;
#1 = EDGE_CURVE ( 'NONE', #105, #172, #151, .T. ) ;
#2 = AXIS2_PLACEMENT_3D ( 'NONE', #193, #270, #42 ) ;
#3 = CARTESIAN_POINT ( 'NONE',  ( 7.660236198808472048E-15, 3.449999999999985523, 2.072969135645097438 ) ) ;
#4 = DIRECTION ( 'NONE',  ( -4.465924508724043685E-31, -1.000000000000000000, -1.257045997084648035E-16 ) ) ;
#5 = DIRECTION ( 'NONE',  ( -3.491481338843133355E-15, 1.224646799147353207E-16, -1.000000000000000000 ) ) ;
#6 = CLOSED_SHELL ( 'NONE', ( #40, #154, #176, #99, #192 ) ) ;
#7 = FACE_OUTER_BOUND ( 'NONE', #214, .T. ) ;
#8 = CC_DESIGN_APPROVAL ( #158, ( #106 ) ) ;
#9 = CARTESIAN_POINT ( 'NONE',  ( 2.559255821372016181E-13, 3.449999999999985523, 73.29999999999999716 ) ) ;
#10 = CARTESIAN_POINT ( 'NONE',  ( 0.0000000000000000000, 0.0000000000000000000, 0.0000000000000000000 ) ) ;
#11 = ADVANCED_FACE ( 'NONE', ( #130 ), #210, .F. ) ;
#12 = APPROVAL_DATE_TIME ( #144, #158 ) ;
#13 = APPROVAL_PERSON_ORGANIZATION ( #248, #281, #307 ) ;
#14 = VERTEX_POINT ( 'NONE', #80 ) ;
#15 = VERTEX_POINT ( 'NONE', #33 ) ;
#16 = EDGE_LOOP ( 'NONE', ( #90, #87, #321, #168 ) ) ;
#17 = COORDINATED_UNIVERSAL_TIME_OFFSET ( 1, 0, .AHEAD. ) ;
#18 = ORIENTED_EDGE ( 'NONE', *, *, #257, .T. ) ;
#19 = DIRECTION ( 'NONE',  ( -3.491481338843133355E-15, 1.224646799147353207E-16, -1.000000000000000000 ) ) ;
#20 = ORIENTED_EDGE ( 'NONE', *, *, #325, .T. ) ;
#21 = EDGE_CURVE ( 'NONE', #326, #150, #259, .T. ) ;
#22 = FACE_OUTER_BOUND ( 'NONE', #200, .T. ) ;
#23 = VECTOR ( 'NONE', #132, 999.9999999999998863 ) ;
#24 = ORIENTED_EDGE ( 'NONE', *, *, #306, .F. ) ;
#25 = EDGE_CURVE ( 'NONE', #89, #250, #240, .T. ) ;
#26 = DIRECTION ( 'NONE',  ( 4.465924508724043685E-31, 1.000000000000000000, 1.257045997084648035E-16 ) ) ;
#27 = APPROVAL_STATUS ( 'not_yet_approved' ) ;
#28 = VECTOR ( 'NONE', #212, 1000.000000000000000 ) ;
#29 = APPROVAL_STATUS ( 'not_yet_approved' ) ;
#30 = CARTESIAN_POINT ( 'NONE',  ( 4.225031457058344172E-16, -3.449999999999991740, -4.225031457058372768E-16 ) ) ;
#31 = ORIENTED_EDGE ( 'NONE', *, *, #289, .T. ) ;
#32 = DIRECTION ( 'NONE',  ( -3.491481338843133355E-15, 1.224646799147353207E-16, -1.000000000000000000 ) ) ;
#33 = CARTESIAN_POINT ( 'NONE',  ( 2.583696190743918430E-13, 2.749999999999985345, 74.00000000000000000 ) ) ;
#34 = CARTESIAN_POINT ( 'NONE',  ( 8.728703347107833388E-14, -3.061616997868383043E-15, 25.00000000000000000 ) ) ;
#35 = LOCAL_TIME ( 9, 21, 59.00000000000000000, #225 ) ;
#36 = VERTEX_POINT ( 'NONE', #290 ) ;
#37 = ORIENTED_EDGE ( 'NONE', *, *, #38, .T. ) ;
#38 = EDGE_CURVE ( 'NONE', #150, #14, #323, .T. ) ;
#39 = DIRECTION ( 'NONE',  ( 4.275831445896958607E-31, 1.000000000000000000, 1.224646799147353207E-16 ) ) ;
#40 = ADVANCED_FACE ( 'NONE', ( #314 ), #109, .T. ) ;
#41 = EDGE_LOOP ( 'NONE', ( #112, #31, #217 ) ) ;
#42 = DIRECTION ( 'NONE',  ( -4.275831445896958607E-31, -1.000000000000000000, -1.224646799147353207E-16 ) ) ;
#43 = ORIENTED_EDGE ( 'NONE', *, *, #97, .F. ) ;
#44 = EDGE_CURVE ( 'NONE', #205, #326, #174, .T. ) ;
#45 = AXIS2_PLACEMENT_3D ( 'NONE', #159, #32, #78 ) ;
#46 = CARTESIAN_POINT ( 'NONE',  ( 1.475161848834447207E-30, 3.449999999999991740, 4.225031457058358470E-16 ) ) ;
#47 = EDGE_CURVE ( 'NONE', #205, #14, #122, .T. ) ;
#48 = PERSON_AND_ORGANIZATION ( #333, #304 ) ;
#49 = DATE_AND_TIME ( #98, #324 ) ;
#50 = ORIENTED_EDGE ( 'NONE', *, *, #83, .F. ) ;
#51 = AXIS2_PLACEMENT_3D ( 'NONE', #125, #238, #26 ) ;
#52 = DIRECTION ( 'NONE',  ( 4.275831445896958607E-31, 1.000000000000000000, 1.224646799147353207E-16 ) ) ;
#53 = DIRECTION ( 'NONE',  ( 3.491481338843133355E-15, -1.224646799147353207E-16, 1.000000000000000000 ) ) ;
#54 = CARTESIAN_POINT ( 'NONE',  ( 8.728703347107833388E-14, -3.061616997868383043E-15, 25.00000000000000000 ) ) ;
#55 = DATE_TIME_ROLE ( 'classification_date' ) ;
#56 = CARTESIAN_POINT ( 'NONE',  ( 7.237733053102636103E-15, -2.538655016699023698E-16, 2.072969135645096994 ) ) ;
#57 = DIRECTION ( 'NONE',  ( 0.0000000000000000000, 1.000000000000000000, 0.0000000000000000000 ) ) ;
#58 = CARTESIAN_POINT ( 'NONE',  ( 1.720288109498458072E-13, -3.449999999999991740, 25.00000000000000000 ) ) ;
#59 =( NAMED_UNIT ( * ) PLANE_ANGLE_UNIT ( ) SI_UNIT ( $, .RADIAN. ) );
#60 = FACE_OUTER_BOUND ( 'NONE', #298, .T. ) ;
#61 = CIRCLE ( 'NONE', #156, 3.449999999999988631 ) ;
#62 = CARTESIAN_POINT ( 'NONE',  ( 2.583696190743918430E-13, 2.749999999999985345, 74.00000000000000000 ) ) ;
#63 = DIRECTION ( 'NONE',  ( 1.000000000000000000, 0.0000000000000000000, 0.0000000000000000000 ) ) ;
#64 = COORDINATED_UNIVERSAL_TIME_OFFSET ( 1, 0, .AHEAD. ) ;
#65 = PERSON_AND_ORGANIZATION ( #333, #304 ) ;
#66 = PERSON_AND_ORGANIZATION_ROLE ( 'design_owner' ) ;
#67 = CIRCLE ( 'NONE', #335, 3.449999999999988631 ) ;
#68 = DIRECTION ( 'NONE',  ( -3.491481338843133355E-15, 1.224646799147353207E-16, -1.000000000000000000 ) ) ;
#69 = ORIENTED_EDGE ( 'NONE', *, *, #25, .T. ) ;
#70 = CC_DESIGN_DATE_AND_TIME_ASSIGNMENT ( #327, #114, ( #106 ) ) ;
#71 = CIRCLE ( 'NONE', #145, 2.749999999999994671 ) ;
#72 = CARTESIAN_POINT ( 'NONE',  ( 8.728703347107833388E-14, 3.449999999999985523, 25.00000000000000000 ) ) ;
#73 = PERSON_AND_ORGANIZATION ( #333, #304 ) ;
#74 = CARTESIAN_POINT ( 'NONE',  ( 7.237733053102636103E-15, -2.538655016699023698E-16, 2.072969135645096994 ) ) ;
#75 = CALENDAR_DATE ( 2021, 3, 9 ) ;
#76 = CARTESIAN_POINT ( 'NONE',  ( 0.0000000000000000000, 0.0000000000000000000, 0.0000000000000000000 ) ) ;
#77 = CC_DESIGN_PERSON_AND_ORGANIZATION_ASSIGNMENT ( #336, #279, ( #209 ) ) ;
#78 = DIRECTION ( 'NONE',  ( 0.0000000000000000000, 1.000000000000000000, 0.0000000000000000000 ) ) ;
#79 = AXIS2_PLACEMENT_3D ( 'NONE', #133, #81, #181 ) ;
#80 = CARTESIAN_POINT ( 'NONE',  ( 8.728703347107833388E-14, 3.449999999999985523, 25.00000000000000000 ) ) ;
#81 = DIRECTION ( 'NONE',  ( -3.491481338843133355E-15, 1.224646799147353207E-16, -1.000000000000000000 ) ) ;
#82 = CARTESIAN_POINT ( 'NONE',  ( 7.237733053102634525E-15, -3.449999999999986411, 2.072969135645096550 ) ) ;
#83 = EDGE_CURVE ( 'NONE', #36, #326, #93, .T. ) ;
#84 = DIRECTION ( 'NONE',  ( -3.491481338843133355E-15, 1.224646799147353207E-16, -1.000000000000000000 ) ) ;
#85 = ORIENTED_EDGE ( 'NONE', *, *, #21, .F. ) ;
#86 = AXIS2_PLACEMENT_3D ( 'NONE', #282, #182, #52 ) ;
#87 = ORIENTED_EDGE ( 'NONE', *, *, #21, .T. ) ;
#88 = VERTEX_POINT ( 'NONE', #72 ) ;
#89 = VERTEX_POINT ( 'NONE', #229 ) ;
#90 = ORIENTED_EDGE ( 'NONE', *, *, #44, .T. ) ;
#91 = EDGE_CURVE ( 'NONE', #88, #172, #187, .T. ) ;
#92 = PERSON_AND_ORGANIZATION_ROLE ( 'design_supplier' ) ;
#93 = LINE ( 'NONE', #202, #272 ) ;
#94 = CLOSED_SHELL ( 'NONE', ( #239, #317, #119, #226, #308, #11 ) ) ;
#95 = AXIS2_PLACEMENT_3D ( 'NONE', #137, #291, #104 ) ;
#96 = AXIS2_PLACEMENT_3D ( 'NONE', #153, #177, #4 ) ;
#97 = EDGE_CURVE ( 'NONE', #89, #88, #61, .T. ) ;
#98 = CALENDAR_DATE ( 2021, 3, 9 ) ;
#99 = ADVANCED_FACE ( 'NONE', ( #22 ), #194, .T. ) ;
#100 = DIRECTION ( 'NONE',  ( -3.491481338843133355E-15, 1.224646799147353207E-16, -1.000000000000000000 ) ) ;
#101 = DIRECTION ( 'NONE',  ( 0.0000000000000000000, 1.000000000000000000, 0.0000000000000000000 ) ) ;
#102 = LINE ( 'NONE', #319, #223 ) ;
#103 = CIRCLE ( 'NONE', #51, 3.449999999999985967 ) ;
#104 = DIRECTION ( 'NONE',  ( 4.275831445896958607E-31, 1.000000000000000000, 1.224646799147353207E-16 ) ) ;
#105 = VERTEX_POINT ( 'NONE', #163 ) ;
#106 = PRODUCT_DEFINITION ( 'UNKNOWN', '', #209, #121 ) ;
#107 = CARTESIAN_POINT ( 'NONE',  ( 8.728703347107833388E-14, -3.061616997868383043E-15, 25.00000000000000000 ) ) ;
#108 = ORIENTED_EDGE ( 'NONE', *, *, #243, .T. ) ;
#109 = CYLINDRICAL_SURFACE ( 'NONE', #231, 3.449999999999987299 ) ;
#110 = CARTESIAN_POINT ( 'NONE',  ( 1.475161848834445280E-30, 3.449999999999987299, 4.225031457058353046E-16 ) ) ;
#111 = DIRECTION ( 'NONE',  ( 0.0000000000000000000, 1.000000000000000000, 0.0000000000000000000 ) ) ;
#112 = ORIENTED_EDGE ( 'NONE', *, *, #1, .F. ) ;
#113 = EDGE_CURVE ( 'NONE', #15, #36, #71, .T. ) ;
#114 = DATE_TIME_ROLE ( 'creation_date' ) ;
#115 = ORIENTED_EDGE ( 'NONE', *, *, #91, .T. ) ;
#116 = EDGE_LOOP ( 'NONE', ( #108, #69, #143, #165 ) ) ;
#117 = UNCERTAINTY_MEASURE_WITH_UNIT (LENGTH_MEASURE( 1.000000000000000082E-05 ), #179, 'distance_accuracy_value', 'NONE');
#118 = CONICAL_SURFACE ( 'NONE', #45, 2.749999999999994671, 0.7853981633974439491 ) ;
#119 = ADVANCED_FACE ( 'NONE', ( #138 ), #245, .F. ) ;
#120 = APPROVAL_ROLE ( '' ) ;
#121 = DESIGN_CONTEXT ( 'detailed design', #224, 'design' ) ;
#122 = LINE ( 'NONE', #46, #208 ) ;
#123 = APPROVAL_DATE_TIME ( #126, #281 ) ;
#124 = AXIS2_PLACEMENT_3D ( 'NONE', #76, #286, #256 ) ;
#125 = CARTESIAN_POINT ( 'NONE',  ( 7.237733053102636103E-15, -2.538655016699023698E-16, 2.072969135645096994 ) ) ;
#126 = DATE_AND_TIME ( #75, #266 ) ;
#127 = ORIENTED_EDGE ( 'NONE', *, *, #243, .F. ) ;
#128 = CC_DESIGN_PERSON_AND_ORGANIZATION_ASSIGNMENT ( #65, #139, ( #106 ) ) ;
#129 = LOCAL_TIME ( 9, 21, 59.00000000000000000, #167 ) ;
#130 = FACE_OUTER_BOUND ( 'NONE', #227, .T. ) ;
#131 = DIRECTION ( 'NONE',  ( 3.491481338843133355E-15, -1.224646799147353207E-16, 1.000000000000000000 ) ) ;
#132 = DIRECTION ( 'NONE',  ( 1.903218546456022717E-15, 0.8571673007021097801, 0.5150380749100585964 ) ) ;
#133 = CARTESIAN_POINT ( 'NONE',  ( 2.559255821372016181E-13, -8.976661037750097719E-15, 73.29999999999999716 ) ) ;
#134 = CC_DESIGN_DATE_AND_TIME_ASSIGNMENT ( #49, #55, ( #316 ) ) ;
#135 = CIRCLE ( 'NONE', #236, 3.449999999999988631 ) ;
#136 = APPLICATION_PROTOCOL_DEFINITION ( 'international standard', 'config_control_design', 1994, #301 ) ;
#137 = CARTESIAN_POINT ( 'NONE',  ( 0.0000000000000000000, 0.0000000000000000000, 0.0000000000000000000 ) ) ;
#138 = FACE_OUTER_BOUND ( 'NONE', #334, .T. ) ;
#139 = PERSON_AND_ORGANIZATION_ROLE ( 'creator' ) ;
#140 = CC_DESIGN_PERSON_AND_ORGANIZATION_ASSIGNMENT ( #170, #66, ( #312 ) ) ;
#141 = AXIS2_PLACEMENT_3D ( 'NONE', #191, #19, #273 ) ;
#142 = EDGE_LOOP ( 'NONE', ( #50, #269, #331, #24 ) ) ;
#143 = ORIENTED_EDGE ( 'NONE', *, *, #325, .F. ) ;
#144 = DATE_AND_TIME ( #249, #129 ) ;
#145 = AXIS2_PLACEMENT_3D ( 'NONE', #184, #267, #111 ) ;
#146 = ORIENTED_EDGE ( 'NONE', *, *, #329, .F. ) ;
#147 = AXIS2_PLACEMENT_3D ( 'NONE', #56, #277, #337 ) ;
#148 = DIRECTION ( 'NONE',  ( -3.491481338843133355E-15, 1.224646799147353207E-16, -1.000000000000000000 ) ) ;
#149 = DIRECTION ( 'NONE',  ( 0.0000000000000000000, 1.000000000000000000, 0.0000000000000000000 ) ) ;
#150 = VERTEX_POINT ( 'NONE', #58 ) ;
#151 = LINE ( 'NONE', #3, #23 ) ;
#152 =( GEOMETRIC_REPRESENTATION_CONTEXT ( 3 ) GLOBAL_UNCERTAINTY_ASSIGNED_CONTEXT ( ( #117 ) ) GLOBAL_UNIT_ASSIGNED_CONTEXT ( ( #179, #59, #288 ) ) REPRESENTATION_CONTEXT ( 'NONE', 'WORKASPACE' ) );
#153 = CARTESIAN_POINT ( 'NONE',  ( 7.237733053102636103E-15, -2.538655016699023698E-16, 2.072969135645096994 ) ) ;
#154 = ADVANCED_FACE ( 'NONE', ( #206 ), #189, .T. ) ;
#155 = PERSON_AND_ORGANIZATION ( #333, #304 ) ;
#156 = AXIS2_PLACEMENT_3D ( 'NONE', #54, #68, #149 ) ;
#157 = APPROVAL_PERSON_ORGANIZATION ( #73, #158, #120 ) ;
#158 = APPROVAL ( #311, 'UNSPECIFIED' ) ;
#159 = CARTESIAN_POINT ( 'NONE',  ( 2.583696190743918430E-13, -9.062386313690413585E-15, 74.00000000000000000 ) ) ;
#160 = CARTESIAN_POINT ( 'NONE',  ( 2.583696190743918430E-13, -9.062386313690413585E-15, 74.00000000000000000 ) ) ;
#161 = AXIS2_PLACEMENT_3D ( 'NONE', #10, #320, #39 ) ;
#162 = DIRECTION ( 'NONE',  ( -3.491481338843133355E-15, 1.224646799147353207E-16, -1.000000000000000000 ) ) ;
#163 = CARTESIAN_POINT ( 'NONE',  ( 0.0000000000000000000, 0.0000000000000000000, 0.0000000000000000000 ) ) ;
#164 = MANIFOLD_SOLID_BREP ( 'Corps-Déplacer/Copier1[2]', #6 ) ;
#165 = ORIENTED_EDGE ( 'NONE', *, *, #91, .F. ) ;
#166 = CC_DESIGN_SECURITY_CLASSIFICATION ( #316, ( #209 ) ) ;
#167 = COORDINATED_UNIVERSAL_TIME_OFFSET ( 1, 0, .AHEAD. ) ;
#168 = ORIENTED_EDGE ( 'NONE', *, *, #47, .F. ) ;
#169 = APPROVAL ( #29, 'UNSPECIFIED' ) ;
#170 = PERSON_AND_ORGANIZATION ( #333, #304 ) ;
#171 = APPROVAL_DATE_TIME ( #332, #169 ) ;
#172 = VERTEX_POINT ( 'NONE', #235 ) ;
#173 = CYLINDRICAL_SURFACE ( 'NONE', #124, 3.449999999999991740 ) ;
#174 = CIRCLE ( 'NONE', #141, 3.449999999999994849 ) ;
#175 = COORDINATED_UNIVERSAL_TIME_OFFSET ( 1, 0, .AHEAD. ) ;
#176 = ADVANCED_FACE ( 'NONE', ( #309 ), #300, .T. ) ;
#177 = DIRECTION ( 'NONE',  ( 3.491481338843133355E-15, -1.224646799147353207E-16, 1.000000000000000000 ) ) ;
#178 = ORIENTED_EDGE ( 'NONE', *, *, #113, .T. ) ;
#179 =( LENGTH_UNIT ( ) NAMED_UNIT ( * ) SI_UNIT ( .MILLI., .METRE. ) );
#180 = AXIS2_PLACEMENT_3D ( 'NONE', #188, #260, #63 ) ;
#181 = DIRECTION ( 'NONE',  ( 0.0000000000000000000, 1.000000000000000000, 0.0000000000000000000 ) ) ;
#182 = DIRECTION ( 'NONE',  ( -3.491481338843133355E-15, 1.224646799147353207E-16, -1.000000000000000000 ) ) ;
#183 = DIRECTION ( 'NONE',  ( 0.0000000000000000000, 1.000000000000000000, 0.0000000000000000000 ) ) ;
#184 = CARTESIAN_POINT ( 'NONE',  ( 2.583696190743918430E-13, -9.062386313690413585E-15, 74.00000000000000000 ) ) ;
#185 = DIRECTION ( 'NONE',  ( -3.491481338843133355E-15, 1.224646799147353207E-16, -1.000000000000000000 ) ) ;
#186 = LINE ( 'NONE', #62, #28 ) ;
#187 = LINE ( 'NONE', #110, #295 ) ;
#188 = CARTESIAN_POINT ( 'NONE',  ( 0.0000000000000000000, 0.0000000000000000000, 0.0000000000000000000 ) ) ;
#189 = CONICAL_SURFACE ( 'NONE', #303, 3.449999999999985967, 1.029744258676649649 ) ;
#190 = CONICAL_SURFACE ( 'NONE', #278, 2.749999999999994671, 0.7853981633974439491 ) ;
#191 = CARTESIAN_POINT ( 'NONE',  ( 2.559255821372016181E-13, -8.976661037750097719E-15, 73.29999999999999716 ) ) ;
#192 = ADVANCED_FACE ( 'NONE', ( #211 ), #313, .T. ) ;
#193 = CARTESIAN_POINT ( 'NONE',  ( 8.728703347107833388E-14, 2.587085625091691510E-32, 25.00000000000000000 ) ) ;
#194 = CYLINDRICAL_SURFACE ( 'NONE', #161, 3.449999999999987299 ) ;
#195 = ORIENTED_EDGE ( 'NONE', *, *, #38, .F. ) ;
#196 = ORIENTED_EDGE ( 'NONE', *, *, #203, .F. ) ;
#197 = CC_DESIGN_PERSON_AND_ORGANIZATION_ASSIGNMENT ( #48, #252, ( #316 ) ) ;
#198 = LOCAL_TIME ( 9, 21, 59.00000000000000000, #17 ) ;
#199 = ORIENTED_EDGE ( 'NONE', *, *, #306, .T. ) ;
#200 = EDGE_LOOP ( 'NONE', ( #221, #222, #115, #146 ) ) ;
#201 = CALENDAR_DATE ( 2021, 3, 9 ) ;
#202 = CARTESIAN_POINT ( 'NONE',  ( 2.587063969441573836E-13, -2.750000000000003553, 74.00000000000000000 ) ) ;
#203 = EDGE_CURVE ( 'NONE', #36, #15, #330, .T. ) ;
#204 = CC_DESIGN_APPROVAL ( #169, ( #316 ) ) ;
#205 = VERTEX_POINT ( 'NONE', #9 ) ;
#206 = FACE_OUTER_BOUND ( 'NONE', #254, .T. ) ;
#207 = ORIENTED_EDGE ( 'NONE', *, *, #1, .T. ) ;
#208 = VECTOR ( 'NONE', #148, 1000.000000000000000 ) ;
#209 = PRODUCT_DEFINITION_FORMATION_WITH_SPECIFIED_SOURCE ( 'ANY', '', #312, .NOT_KNOWN. ) ;
#210 = PLANE ( 'NONE',  #86 ) ;
#211 = FACE_OUTER_BOUND ( 'NONE', #302, .T. ) ;
#212 = DIRECTION ( 'NONE',  ( -2.468850131082275599E-15, 0.7071067811865445751, -0.7071067811865504593 ) ) ;
#213 = DIRECTION ( 'NONE',  ( 0.0000000000000000000, 1.000000000000000000, 0.0000000000000000000 ) ) ;
#214 = EDGE_LOOP ( 'NONE', ( #85, #199, #280, #195 ) ) ;
#215 = DIRECTION ( 'NONE',  ( 0.0000000000000000000, 1.000000000000000000, 0.0000000000000000000 ) ) ;
#216 = ORIENTED_EDGE ( 'NONE', *, *, #44, .F. ) ;
#217 = ORIENTED_EDGE ( 'NONE', *, *, #329, .T. ) ;
#218 = CARTESIAN_POINT ( 'NONE',  ( 0.0000000000000000000, 0.0000000000000000000, 0.0000000000000000000 ) ) ;
#219 = APPROVAL_PERSON_ORGANIZATION ( #155, #169, #237 ) ;
#220 = CALENDAR_DATE ( 2021, 3, 9 ) ;
#221 = ORIENTED_EDGE ( 'NONE', *, *, #25, .F. ) ;
#222 = ORIENTED_EDGE ( 'NONE', *, *, #97, .T. ) ;
#223 = VECTOR ( 'NONE', #261, 1000.000000000000000 ) ;
#224 = APPLICATION_CONTEXT ( 'configuration controlled 3d designs of mechanical parts and assemblies' ) ;
#225 = COORDINATED_UNIVERSAL_TIME_OFFSET ( 1, 0, .AHEAD. ) ;
#226 = ADVANCED_FACE ( 'NONE', ( #7 ), #315, .T. ) ;
#227 = EDGE_LOOP ( 'NONE', ( #292, #196 ) ) ;
#228 = PRODUCT_DEFINITION_SHAPE ( 'NONE', 'NONE',  #106 ) ;
#229 = CARTESIAN_POINT ( 'NONE',  ( 4.768488640779628938E-14, -3.449999999999991296, 25.00000000000000000 ) ) ;
#230 = SECURITY_CLASSIFICATION_LEVEL ( 'unclassified' ) ;
#231 = AXIS2_PLACEMENT_3D ( 'NONE', #218, #322, #297 ) ;
#232 = CC_DESIGN_APPROVAL ( #281, ( #209 ) ) ;
#233 = FACE_OUTER_BOUND ( 'NONE', #16, .T. ) ;
#234 = PERSON_AND_ORGANIZATION ( #333, #304 ) ;
#235 = CARTESIAN_POINT ( 'NONE',  ( 7.660236198808472048E-15, 3.449999999999985523, 2.072969135645097438 ) ) ;
#236 = AXIS2_PLACEMENT_3D ( 'NONE', #107, #84, #183 ) ;
#237 = APPROVAL_ROLE ( '' ) ;
#238 = DIRECTION ( 'NONE',  ( -3.491481338843133355E-15, 1.224646799147353207E-16, -1.000000000000000000 ) ) ;
#239 = ADVANCED_FACE ( 'NONE', ( #60 ), #190, .T. ) ;
#240 = LINE ( 'NONE', #262, #276 ) ;
#241 = CARTESIAN_POINT ( 'NONE',  ( 8.728703347107833388E-14, -3.061616997868383043E-15, 25.00000000000000000 ) ) ;
#242 = CARTESIAN_POINT ( 'NONE',  ( 2.583696190743918430E-13, -9.062386313690413585E-15, 74.00000000000000000 ) ) ;
#243 = EDGE_CURVE ( 'NONE', #88, #89, #67, .T. ) ;
#244 = MECHANICAL_CONTEXT ( 'NONE', #301, 'mechanical' ) ;
#245 = PLANE ( 'NONE',  #2 ) ;
#246 = CC_DESIGN_PERSON_AND_ORGANIZATION_ASSIGNMENT ( #234, #92, ( #209 ) ) ;
#247 = ORIENTED_EDGE ( 'NONE', *, *, #289, .F. ) ;
#248 = PERSON_AND_ORGANIZATION ( #333, #304 ) ;
#249 = CALENDAR_DATE ( 2021, 3, 9 ) ;
#250 = VERTEX_POINT ( 'NONE', #82 ) ;
#251 = ORIENTED_EDGE ( 'NONE', *, *, #83, .T. ) ;
#252 = PERSON_AND_ORGANIZATION_ROLE ( 'classification_officer' ) ;
#253 = CIRCLE ( 'NONE', #79, 3.449999999999994849 ) ;
#254 = EDGE_LOOP ( 'NONE', ( #247, #207, #20 ) ) ;
#255 = DIRECTION ( 'NONE',  ( -4.465924508724043685E-31, -1.000000000000000000, -1.257045997084648035E-16 ) ) ;
#256 = DIRECTION ( 'NONE',  ( 4.275831445896958607E-31, 1.000000000000000000, 1.224646799147353207E-16 ) ) ;
#257 = EDGE_CURVE ( 'NONE', #14, #150, #135, .T. ) ;
#258 = CARTESIAN_POINT ( 'NONE',  ( 1.720288109498456810E-13, -3.450000000000003730, 73.29999999999999716 ) ) ;
#259 = LINE ( 'NONE', #30, #265 ) ;
#260 = DIRECTION ( 'NONE',  ( 0.0000000000000000000, 0.0000000000000000000, 1.000000000000000000 ) ) ;
#261 = DIRECTION ( 'NONE',  ( 1.798245827342160317E-15, -0.8571673007021098911, 0.5150380749100582634 ) ) ;
#262 = CARTESIAN_POINT ( 'NONE',  ( 4.225031457058338748E-16, -3.449999999999987299, -4.225031457058367344E-16 ) ) ;
#263 = DIRECTION ( 'NONE',  ( -3.491481338843133355E-15, 1.224646799147353207E-16, -1.000000000000000000 ) ) ;
#264 = PRODUCT_RELATED_PRODUCT_CATEGORY ( 'detail', '', ( #312 ) ) ;
#265 = VECTOR ( 'NONE', #185, 1000.000000000000000 ) ;
#266 = LOCAL_TIME ( 9, 21, 59.00000000000000000, #175 ) ;
#267 = DIRECTION ( 'NONE',  ( -3.491481338843133355E-15, 1.224646799147353207E-16, -1.000000000000000000 ) ) ;
#268 = ADVANCED_BREP_SHAPE_REPRESENTATION ( '327', ( #274, #164, #180 ), #152 ) ;
#269 = ORIENTED_EDGE ( 'NONE', *, *, #203, .T. ) ;
#270 = DIRECTION ( 'NONE',  ( 3.491481338843133355E-15, -1.224646799147353207E-16, 1.000000000000000000 ) ) ;
#271 = CIRCLE ( 'NONE', #147, 3.449999999999985967 ) ;
#272 = VECTOR ( 'NONE', #305, 1000.000000000000000 ) ;
#273 = DIRECTION ( 'NONE',  ( 0.0000000000000000000, 1.000000000000000000, 0.0000000000000000000 ) ) ;
#274 = MANIFOLD_SOLID_BREP ( 'Corps-Déplacer/Copier1[1]', #94 ) ;
#275 = APPLICATION_PROTOCOL_DEFINITION ( 'international standard', 'config_control_design', 1994, #224 ) ;
#276 = VECTOR ( 'NONE', #5, 1000.000000000000000 ) ;
#277 = DIRECTION ( 'NONE',  ( -3.491481338843133355E-15, 1.224646799147353207E-16, -1.000000000000000000 ) ) ;
#278 = AXIS2_PLACEMENT_3D ( 'NONE', #160, #263, #213 ) ;
#279 = PERSON_AND_ORGANIZATION_ROLE ( 'creator' ) ;
#280 = ORIENTED_EDGE ( 'NONE', *, *, #47, .T. ) ;
#281 = APPROVAL ( #27, 'UNSPECIFIED' ) ;
#282 = CARTESIAN_POINT ( 'NONE',  ( 2.583696190743918430E-13, 2.062169701160036968E-32, 74.00000000000000000 ) ) ;
#283 = CARTESIAN_POINT ( 'NONE',  ( 8.728703347107833388E-14, 2.587085625091691510E-32, 25.00000000000000000 ) ) ;
#284 = AXIS2_PLACEMENT_3D ( 'NONE', #241, #293, #101 ) ;
#285 = AXIS2_PLACEMENT_3D ( 'NONE', #242, #294, #215 ) ;
#286 = DIRECTION ( 'NONE',  ( -3.491481338843133355E-15, 1.224646799147353207E-16, -1.000000000000000000 ) ) ;
#287 = FACE_OUTER_BOUND ( 'NONE', #142, .T. ) ;
#288 =( NAMED_UNIT ( * ) SI_UNIT ( $, .STERADIAN. ) SOLID_ANGLE_UNIT ( ) );
#289 = EDGE_CURVE ( 'NONE', #105, #250, #102, .T. ) ;
#290 = CARTESIAN_POINT ( 'NONE',  ( 2.575272411135324323E-13, -2.750000000000003553, 74.00000000000000000 ) ) ;
#291 = DIRECTION ( 'NONE',  ( -3.491481338843133355E-15, 1.224646799147353207E-16, -1.000000000000000000 ) ) ;
#292 = ORIENTED_EDGE ( 'NONE', *, *, #113, .F. ) ;
#293 = DIRECTION ( 'NONE',  ( -3.491481338843133355E-15, 1.224646799147353207E-16, -1.000000000000000000 ) ) ;
#294 = DIRECTION ( 'NONE',  ( -3.491481338843133355E-15, 1.224646799147353207E-16, -1.000000000000000000 ) ) ;
#295 = VECTOR ( 'NONE', #100, 1000.000000000000000 ) ;
#296 = AXIS2_PLACEMENT_3D ( 'NONE', #283, #53, #318 ) ;
#297 = DIRECTION ( 'NONE',  ( 4.275831445896958607E-31, 1.000000000000000000, 1.224646799147353207E-16 ) ) ;
#298 = EDGE_LOOP ( 'NONE', ( #178, #251, #216, #310 ) ) ;
#299 = EDGE_CURVE ( 'NONE', #15, #205, #186, .T. ) ;
#300 = CONICAL_SURFACE ( 'NONE', #96, 3.449999999999985967, 1.029744258676649649 ) ;
#301 = APPLICATION_CONTEXT ( 'configuration controlled 3d designs of mechanical parts and assemblies' ) ;
#302 = EDGE_LOOP ( 'NONE', ( #127, #43 ) ) ;
#303 = AXIS2_PLACEMENT_3D ( 'NONE', #74, #131, #255 ) ;
#304 = ORGANIZATION ( 'UNSPECIFIED', 'UNSPECIFIED', '' ) ;
#305 = DIRECTION ( 'NONE',  ( -2.382254525458727330E-15, -0.7071067811865443531, -0.7071067811865506814 ) ) ;
#306 = EDGE_CURVE ( 'NONE', #326, #205, #253, .T. ) ;
#307 = APPROVAL_ROLE ( '' ) ;
#308 = ADVANCED_FACE ( 'NONE', ( #287 ), #118, .T. ) ;
#309 = FACE_OUTER_BOUND ( 'NONE', #41, .T. ) ;
#310 = ORIENTED_EDGE ( 'NONE', *, *, #299, .F. ) ;
#311 = APPROVAL_STATUS ( 'not_yet_approved' ) ;
#312 = PRODUCT ( '327', '327', '', ( #244 ) ) ;
#313 = PLANE ( 'NONE',  #296 ) ;
#314 = FACE_OUTER_BOUND ( 'NONE', #116, .T. ) ;
#315 = CYLINDRICAL_SURFACE ( 'NONE', #95, 3.449999999999991740 ) ;
#316 = SECURITY_CLASSIFICATION ( '', '', #230 ) ;
#317 = ADVANCED_FACE ( 'NONE', ( #233 ), #173, .T. ) ;
#318 = DIRECTION ( 'NONE',  ( -4.275831445896958607E-31, -1.000000000000000000, -1.224646799147353207E-16 ) ) ;
#319 = CARTESIAN_POINT ( 'NONE',  ( 7.237733053102634525E-15, -3.449999999999986411, 2.072969135645096550 ) ) ;
#320 = DIRECTION ( 'NONE',  ( -3.491481338843133355E-15, 1.224646799147353207E-16, -1.000000000000000000 ) ) ;
#321 = ORIENTED_EDGE ( 'NONE', *, *, #257, .F. ) ;
#322 = DIRECTION ( 'NONE',  ( -3.491481338843133355E-15, 1.224646799147353207E-16, -1.000000000000000000 ) ) ;
#323 = CIRCLE ( 'NONE', #284, 3.449999999999988631 ) ;
#324 = LOCAL_TIME ( 9, 21, 59.00000000000000000, #64 ) ;
#325 = EDGE_CURVE ( 'NONE', #172, #250, #103, .T. ) ;
#326 = VERTEX_POINT ( 'NONE', #258 ) ;
#327 = DATE_AND_TIME ( #220, #198 ) ;
#328 = SHAPE_DEFINITION_REPRESENTATION ( #228, #268 ) ;
#329 = EDGE_CURVE ( 'NONE', #250, #172, #271, .T. ) ;
#330 = CIRCLE ( 'NONE', #285, 2.749999999999994671 ) ;
#331 = ORIENTED_EDGE ( 'NONE', *, *, #299, .T. ) ;
#332 = DATE_AND_TIME ( #201, #35 ) ;
#333 = PERSON ( 'UNSPECIFIED', 'UNSPECIFIED', 'UNSPECIFIED', ('UNSPECIFIED'), ('UNSPECIFIED'), ('UNSPECIFIED') ) ;
#334 = EDGE_LOOP ( 'NONE', ( #18, #37 ) ) ;
#335 = AXIS2_PLACEMENT_3D ( 'NONE', #34, #162, #57 ) ;
#336 = PERSON_AND_ORGANIZATION ( #333, #304 ) ;
#337 = DIRECTION ( 'NONE',  ( 4.465924508724043685E-31, 1.000000000000000000, 1.257045997084648035E-16 ) ) ;
ENDSEC;
END-ISO-10303-21;
