ISO-10303-21;
HEADER;
FILE_DESCRIPTION (( 'STEP AP203' ),
    '1' );
FILE_NAME ('326999.step',
    '2021-12-01T07:27:24',
    ( '' ),
    ( '' ),
    'SwSTEP 2.0',
    'SolidWorks 2019',
    '' );
FILE_SCHEMA (( 'CONFIG_CONTROL_DESIGN' ));
ENDSEC;

DATA;
#1 = ORIENTED_EDGE ( 'NONE', *, *, #182, .F. ) ;
#2 = PERSON ( 'UNSPECIFIED', 'UNSPECIFIED', 'UNSPECIFIED', ('UNSPECIFIED'), ('UNSPECIFIED'), ('UNSPECIFIED') ) ;
#3 = FACE_BOUND ( 'NONE', #109, .T. ) ;
#4 = COORDINATED_UNIVERSAL_TIME_OFFSET ( 1, 0, .AHEAD. ) ;
#5 = CONICAL_SURFACE ( 'NONE', #107, 0.1899999999999990308, 0.5235987755982921543 ) ;
#6 = PLANE ( 'NONE',  #54 ) ;
#7 = COORDINATED_UNIVERSAL_TIME_OFFSET ( 1, 0, .AHEAD. ) ;
#8 = DIRECTION ( 'NONE',  ( -3.491481338843133355E-15, 1.224646799147353207E-16, -1.000000000000000000 ) ) ;
#9 = DIRECTION ( 'NONE',  ( 3.491481338843133355E-15, -1.224646799147353207E-16, 1.000000000000000000 ) ) ;
#10 = CC_DESIGN_DATE_AND_TIME_ASSIGNMENT ( #246, #254, ( #128 ) ) ;
#11 = CARTESIAN_POINT ( 'NONE',  ( 4.400787554541419292E-14, -1.543588485620371042E-15, 12.60435651075132313 ) ) ;
#12 = VERTEX_POINT ( 'NONE', #259 ) ;
#13 = DESIGN_CONTEXT ( 'detailed design', #94, 'design' ) ;
#14 = CC_DESIGN_PERSON_AND_ORGANIZATION_ASSIGNMENT ( #249, #173, ( #128 ) ) ;
#15 = CC_DESIGN_APPROVAL ( #91, ( #57 ) ) ;
#16 = AXIS2_PLACEMENT_3D ( 'NONE', #197, #279, #179 ) ;
#17 = EDGE_LOOP ( 'NONE', ( #1 ) ) ;
#18 = APPROVAL_DATE_TIME ( #42, #240 ) ;
#19 = ORIENTED_EDGE ( 'NONE', *, *, #71, .T. ) ;
#20 = CARTESIAN_POINT ( 'NONE',  ( 1.866998543791203065E-14, 0.2203844939755810473, 5.347296355333847728 ) ) ;
#21 = EDGE_CURVE ( 'NONE', #167, #167, #205, .T. ) ;
#22 = AXIS2_PLACEMENT_3D ( 'NONE', #84, #53, #121 ) ;
#23 = VERTEX_POINT ( 'NONE', #113 ) ;
#24 = DIRECTION ( 'NONE',  ( -3.491481338843133355E-15, 1.224646799147353207E-16, -1.000000000000000000 ) ) ;
#25 = PERSON_AND_ORGANIZATION ( #2, #155 ) ;
#26 = ADVANCED_FACE ( 'NONE', ( #163 ), #139, .T. ) ;
#27 = DIRECTION ( 'NONE',  ( 4.275831445896958607E-31, 1.000000000000000000, 1.224646799147353207E-16 ) ) ;
#28 = PERSON_AND_ORGANIZATION_ROLE ( 'design_owner' ) ;
#29 = CARTESIAN_POINT ( 'NONE',  ( 1.326762908760390423E-13, 8.998558695971103225E-33, 38.00000000000000000 ) ) ;
#30 = CYLINDRICAL_SURFACE ( 'NONE', #22, 1.500000000000000000 ) ;
#31 = DIRECTION ( 'NONE',  ( 5.068236695755909637E-31, 1.000000000000000000, 1.426581805901986784E-16 ) ) ;
#32 = EDGE_CURVE ( 'NONE', #50, #50, #86, .T. ) ;
#33 = CARTESIAN_POINT ( 'NONE',  ( 1.866998543791203065E-14, -6.548549365651905381E-16, 5.347296355333847728 ) ) ;
#34 = DIRECTION ( 'NONE',  ( 3.491481338843133355E-15, -1.224646799147353207E-16, 1.000000000000000000 ) ) ;
#35 = CALENDAR_DATE ( 2021, 1, 12 ) ;
#36 = APPROVAL_PERSON_ORGANIZATION ( #98, #240, #52 ) ;
#37 = DIRECTION ( 'NONE',  ( 0.0000000000000000000, 1.000000000000000000, 0.0000000000000000000 ) ) ;
#38 = VERTEX_POINT ( 'NONE', #130 ) ;
#39 = CC_DESIGN_DATE_AND_TIME_ASSIGNMENT ( #230, #148, ( #57 ) ) ;
#40 = VERTEX_POINT ( 'NONE', #132 ) ;
#41 = CC_DESIGN_PERSON_AND_ORGANIZATION_ASSIGNMENT ( #118, #209, ( #57 ) ) ;
#42 = DATE_AND_TIME ( #44, #77 ) ;
#43 = ORIENTED_EDGE ( 'NONE', *, *, #149, .T. ) ;
#44 = CALENDAR_DATE ( 2021, 1, 12 ) ;
#45 = AXIS2_PLACEMENT_3D ( 'NONE', #206, #9, #80 ) ;
#46 = EDGE_LOOP ( 'NONE', ( #223 ) ) ;
#47 =( LENGTH_UNIT ( ) NAMED_UNIT ( * ) SI_UNIT ( .MILLI., .METRE. ) );
#48 = DIRECTION ( 'NONE',  ( -3.491481338843133355E-15, 1.224646799147353207E-16, -1.000000000000000000 ) ) ;
#49 = EDGE_LOOP ( 'NONE', ( #263 ) ) ;
#50 = VERTEX_POINT ( 'NONE', #228 ) ;
#51 = DIRECTION ( 'NONE',  ( -3.491481338843133355E-15, 1.224646799147353207E-16, -1.000000000000000000 ) ) ;
#52 = APPROVAL_ROLE ( '' ) ;
#53 = DIRECTION ( 'NONE',  ( -3.491481338843133355E-15, 1.224646799147353207E-16, -1.000000000000000000 ) ) ;
#54 = AXIS2_PLACEMENT_3D ( 'NONE', #29, #24, #92 ) ;
#55 = CARTESIAN_POINT ( 'NONE',  ( 1.047444401652940007E-14, -3.673940397442059868E-16, 3.000000000000000000 ) ) ;
#56 = DIRECTION ( 'NONE',  ( 3.491481338843133355E-15, -1.224646799147353207E-16, 1.000000000000000000 ) ) ;
#57 = PRODUCT_DEFINITION ( 'UNKNOWN', '', #234, #13 ) ;
#58 = CALENDAR_DATE ( 2021, 1, 12 ) ;
#59 = CARTESIAN_POINT ( 'NONE',  ( 1.745740669421566362E-14, -6.123233995736765296E-16, 4.999999999999999112 ) ) ;
#60 = APPROVAL_PERSON_ORGANIZATION ( #166, #272, #267 ) ;
#61 = VERTEX_POINT ( 'NONE', #217 ) ;
#62 = ADVANCED_FACE ( 'NONE', ( #248 ), #264, .F. ) ;
#63 = CLOSED_SHELL ( 'NONE', ( #62, #129, #236, #26 ) ) ;
#64 = ORIENTED_EDGE ( 'NONE', *, *, #21, .T. ) ;
#65 = CLOSED_SHELL ( 'NONE', ( #108, #90, #85, #141, #214, #168, #136 ) ) ;
#66 = CC_DESIGN_PERSON_AND_ORGANIZATION_ASSIGNMENT ( #274, #258, ( #234 ) ) ;
#67 = EDGE_LOOP ( 'NONE', ( #154 ) ) ;
#68 = VERTEX_POINT ( 'NONE', #20 ) ;
#69 = DIRECTION ( 'NONE',  ( 0.0000000000000000000, 1.000000000000000000, 0.0000000000000000000 ) ) ;
#70 = LOCAL_TIME ( 8, 27, 24.00000000000000000, #83 ) ;
#71 = EDGE_CURVE ( 'NONE', #40, #40, #157, .T. ) ;
#72 = EDGE_LOOP ( 'NONE', ( #88 ) ) ;
#73 = DIRECTION ( 'NONE',  ( 0.0000000000000000000, 1.000000000000000000, 0.0000000000000000000 ) ) ;
#74 = DIRECTION ( 'NONE',  ( 4.402587027774092863E-31, 1.000000000000000000, 1.224646799147353207E-16 ) ) ;
#75 = CARTESIAN_POINT ( 'NONE',  ( 0.0000000000000000000, 0.0000000000000000000, 0.0000000000000000000 ) ) ;
#76 = DIRECTION ( 'NONE',  ( 0.0000000000000000000, 0.0000000000000000000, 1.000000000000000000 ) ) ;
#77 = LOCAL_TIME ( 8, 27, 24.00000000000000000, #143 ) ;
#78 = FACE_OUTER_BOUND ( 'NONE', #46, .T. ) ;
#79 = AXIS2_PLACEMENT_3D ( 'NONE', #99, #56, #227 ) ;
#80 = DIRECTION ( 'NONE',  ( -4.275831445896958607E-31, -1.000000000000000000, -1.224646799147353207E-16 ) ) ;
#81 = APPROVAL_STATUS ( 'not_yet_approved' ) ;
#82 = FACE_OUTER_BOUND ( 'NONE', #17, .T. ) ;
#83 = COORDINATED_UNIVERSAL_TIME_OFFSET ( 1, 0, .AHEAD. ) ;
#84 = CARTESIAN_POINT ( 'NONE',  ( 0.0000000000000000000, 0.0000000000000000000, 0.0000000000000000000 ) ) ;
#85 = ADVANCED_FACE ( 'NONE', ( #97, #122 ), #210, .F. ) ;
#86 = CIRCLE ( 'NONE', #134, 0.1899999999999995304 ) ;
#87 = CC_DESIGN_PERSON_AND_ORGANIZATION_ASSIGNMENT ( #280, #28, ( #126 ) ) ;
#88 = ORIENTED_EDGE ( 'NONE', *, *, #225, .T. ) ;
#89 = EDGE_LOOP ( 'NONE', ( #276 ) ) ;
#90 = ADVANCED_FACE ( 'NONE', ( #192, #147 ), #231, .T. ) ;
#91 = APPROVAL ( #81, 'UNSPECIFIED' ) ;
#92 = DIRECTION ( 'NONE',  ( 4.275831445896958607E-31, 1.000000000000000000, 1.224646799147353207E-16 ) ) ;
#93 = LOCAL_TIME ( 8, 27, 24.00000000000000000, #4 ) ;
#94 = APPLICATION_CONTEXT ( 'configuration controlled 3d designs of mechanical parts and assemblies' ) ;
#95 = DATE_AND_TIME ( #125, #203 ) ;
#96 = CYLINDRICAL_SURFACE ( 'NONE', #253, 0.1899999999999992806 ) ;
#97 = FACE_OUTER_BOUND ( 'NONE', #238, .T. ) ;
#98 = PERSON_AND_ORGANIZATION ( #2, #155 ) ;
#99 = CARTESIAN_POINT ( 'NONE',  ( -8.742513112900450688E-32, 3.066460811663620921E-33, -2.503955274123616670E-17 ) ) ;
#100 = APPROVAL_ROLE ( '' ) ;
#101 = FACE_OUTER_BOUND ( 'NONE', #219, .T. ) ;
#102 = MECHANICAL_CONTEXT ( 'NONE', #269, 'mechanical' ) ;
#103 = DIRECTION ( 'NONE',  ( -3.491481338843133355E-15, 1.224646799147353207E-16, -1.000000000000000000 ) ) ;
#104 = AXIS2_PLACEMENT_3D ( 'NONE', #11, #270, #211 ) ;
#105 = CARTESIAN_POINT ( 'NONE',  ( 1.316288464743861212E-13, -4.616918432785521081E-15, 37.69999999999999574 ) ) ;
#106 = CC_DESIGN_APPROVAL ( #240, ( #128 ) ) ;
#107 = AXIS2_PLACEMENT_3D ( 'NONE', #124, #172, #215 ) ;
#108 = ADVANCED_FACE ( 'NONE', ( #101 ), #186, .F. ) ;
#109 = EDGE_LOOP ( 'NONE', ( #183 ) ) ;
#110 = ORIENTED_EDGE ( 'NONE', *, *, #149, .F. ) ;
#111 = EDGE_LOOP ( 'NONE', ( #114 ) ) ;
#112 = AXIS2_PLACEMENT_3D ( 'NONE', #117, #142, #208 ) ;
#113 = CARTESIAN_POINT ( 'NONE',  ( 1.047444401652940007E-14, 0.1899999999999991418, 3.000000000000000000 ) ) ;
#114 = ORIENTED_EDGE ( 'NONE', *, *, #160, .F. ) ;
#115 = PERSON_AND_ORGANIZATION_ROLE ( 'design_supplier' ) ;
#116 = PRODUCT_DEFINITION_SHAPE ( 'NONE', 'NONE',  #57 ) ;
#117 = CARTESIAN_POINT ( 'NONE',  ( -1.748502622580090138E-31, 6.132921623327241841E-33, -5.007910548247233340E-17 ) ) ;
#118 = PERSON_AND_ORGANIZATION ( #2, #155 ) ;
#119 = AXIS2_PLACEMENT_3D ( 'NONE', #244, #48, #138 ) ;
#120 = FACE_OUTER_BOUND ( 'NONE', #133, .T. ) ;
#121 = DIRECTION ( 'NONE',  ( 4.275831445896959482E-31, 1.000000000000000000, 1.224646799147353207E-16 ) ) ;
#122 = FACE_OUTER_BOUND ( 'NONE', #67, .T. ) ;
#123 = CARTESIAN_POINT ( 'NONE',  ( 1.047444401652940007E-14, -3.673940397442059868E-16, 3.000000000000000000 ) ) ;
#124 = CARTESIAN_POINT ( 'NONE',  ( 3.491481338843131876E-16, -1.224646799147352653E-17, 0.09999999999999995004 ) ) ;
#125 = CALENDAR_DATE ( 2021, 1, 12 ) ;
#126 = PRODUCT ( '326999', '326999', '', ( #102 ) ) ;
#127 = AXIS2_PLACEMENT_3D ( 'NONE', #213, #266, #74 ) ;
#128 = SECURITY_CLASSIFICATION ( '', '', #207 ) ;
#129 = ADVANCED_FACE ( 'NONE', ( #252, #120 ), #5, .T. ) ;
#130 = CARTESIAN_POINT ( 'NONE',  ( 1.316288464743861212E-13, 1.499999999999998668, 37.69999999999999574 ) ) ;
#131 = EDGE_LOOP ( 'NONE', ( #135 ) ) ;
#132 = CARTESIAN_POINT ( 'NONE',  ( 3.491481338843132862E-16, 0.1899999999999990308, 0.09999999999999997780 ) ) ;
#133 = EDGE_LOOP ( 'NONE', ( #19 ) ) ;
#134 = AXIS2_PLACEMENT_3D ( 'NONE', #55, #51, #194 ) ;
#135 = ORIENTED_EDGE ( 'NONE', *, *, #71, .F. ) ;
#136 = ADVANCED_FACE ( 'NONE', ( #226 ), #6, .F. ) ;
#137 = APPROVAL_PERSON_ORGANIZATION ( #180, #91, #100 ) ;
#138 = DIRECTION ( 'NONE',  ( 0.0000000000000000000, 1.000000000000000000, 0.0000000000000000000 ) ) ;
#139 = PLANE ( 'NONE',  #45 ) ;
#140 = DIRECTION ( 'NONE',  ( 4.275831445896958607E-31, 1.000000000000000000, 1.224646799147353207E-16 ) ) ;
#141 = ADVANCED_FACE ( 'NONE', ( #3, #189 ), #237, .T. ) ;
#142 = DIRECTION ( 'NONE',  ( -3.491481338843133355E-15, 1.224646799147353207E-16, -1.000000000000000000 ) ) ;
#143 = COORDINATED_UNIVERSAL_TIME_OFFSET ( 1, 0, .AHEAD. ) ;
#144 = AXIS2_PLACEMENT_3D ( 'NONE', #33, #191, #250 ) ;
#145 = DIRECTION ( 'NONE',  ( -3.491481338843133355E-15, 1.224646799147353207E-16, -1.000000000000000000 ) ) ;
#146 = APPLICATION_PROTOCOL_DEFINITION ( 'international standard', 'config_control_design', 1994, #269 ) ;
#147 = FACE_OUTER_BOUND ( 'NONE', #72, .T. ) ;
#148 = DATE_TIME_ROLE ( 'creation_date' ) ;
#149 = EDGE_CURVE ( 'NONE', #12, #12, #265, .T. ) ;
#150 = AXIS2_PLACEMENT_3D ( 'NONE', #75, #76, #278 ) ;
#151 = DIRECTION ( 'NONE',  ( -3.491481338843133355E-15, 1.224646799147353207E-16, -1.000000000000000000 ) ) ;
#152 = AXIS2_PLACEMENT_3D ( 'NONE', #165, #187, #27 ) ;
#153 = CIRCLE ( 'NONE', #144, 0.2203844939755816856 ) ;
#154 = ORIENTED_EDGE ( 'NONE', *, *, #198, .T. ) ;
#155 = ORGANIZATION ( 'UNSPECIFIED', 'UNSPECIFIED', '' ) ;
#156 = ORIENTED_EDGE ( 'NONE', *, *, #32, .T. ) ;
#157 = CIRCLE ( 'NONE', #216, 0.1899999999999990308 ) ;
#158 = ORIENTED_EDGE ( 'NONE', *, *, #160, .T. ) ;
#159 = ADVANCED_BREP_SHAPE_REPRESENTATION ( '326999', ( #239, #241, #150 ), #251 ) ;
#160 = EDGE_CURVE ( 'NONE', #61, #61, #200, .T. ) ;
#161 = VERTEX_POINT ( 'NONE', #224 ) ;
#162 = LOCAL_TIME ( 8, 27, 24.00000000000000000, #212 ) ;
#163 = FACE_OUTER_BOUND ( 'NONE', #89, .T. ) ;
#164 = CIRCLE ( 'NONE', #277, 1.500000000000003331 ) ;
#165 = CARTESIAN_POINT ( 'NONE',  ( 0.0000000000000000000, 0.0000000000000000000, 0.0000000000000000000 ) ) ;
#166 = PERSON_AND_ORGANIZATION ( #2, #155 ) ;
#167 = VERTEX_POINT ( 'NONE', #247 ) ;
#168 = ADVANCED_FACE ( 'NONE', ( #82, #257 ), #184, .T. ) ;
#169 = CARTESIAN_POINT ( 'NONE',  ( 1.326762908760390423E-13, -4.653657836759941941E-15, 38.00000000000000000 ) ) ;
#170 = APPROVAL_DATE_TIME ( #95, #272 ) ;
#171 = UNCERTAINTY_MEASURE_WITH_UNIT (LENGTH_MEASURE( 1.000000000000000082E-05 ), #47, 'distance_accuracy_value', 'NONE');
#172 = DIRECTION ( 'NONE',  ( 3.491481338843133355E-15, -1.224646799147353207E-16, 1.000000000000000000 ) ) ;
#173 = PERSON_AND_ORGANIZATION_ROLE ( 'classification_officer' ) ;
#174 = DIRECTION ( 'NONE',  ( -3.491481338843133355E-15, 1.224646799147353207E-16, -1.000000000000000000 ) ) ;
#175 = CARTESIAN_POINT ( 'NONE',  ( 1.047444401652940007E-14, 1.424771793528755456E-33, 3.000000000000000000 ) ) ;
#176 = CC_DESIGN_PERSON_AND_ORGANIZATION_ASSIGNMENT ( #25, #115, ( #234 ) ) ;
#177 = APPLICATION_PROTOCOL_DEFINITION ( 'international standard', 'config_control_design', 1994, #94 ) ;
#178 = DIRECTION ( 'NONE',  ( -3.491481338843133355E-15, 1.224646799147353207E-16, -1.000000000000000000 ) ) ;
#179 = DIRECTION ( 'NONE',  ( 0.0000000000000000000, 1.000000000000000000, 0.0000000000000000000 ) ) ;
#180 = PERSON_AND_ORGANIZATION ( #2, #155 ) ;
#181 = AXIS2_PLACEMENT_3D ( 'NONE', #175, #34, #229 ) ;
#182 = EDGE_CURVE ( 'NONE', #38, #38, #164, .T. ) ;
#183 = ORIENTED_EDGE ( 'NONE', *, *, #198, .F. ) ;
#184 = CONICAL_SURFACE ( 'NONE', #16, 1.200000000000003286, 0.7853981633974453924 ) ;
#185 =( NAMED_UNIT ( * ) SI_UNIT ( $, .STERADIAN. ) SOLID_ANGLE_UNIT ( ) );
#186 = PLANE ( 'NONE',  #181 ) ;
#187 = DIRECTION ( 'NONE',  ( -3.491481338843133355E-15, 1.224646799147353207E-16, -1.000000000000000000 ) ) ;
#188 = CALENDAR_DATE ( 2021, 1, 12 ) ;
#189 = FACE_OUTER_BOUND ( 'NONE', #262, .T. ) ;
#190 = DATE_AND_TIME ( #35, #162 ) ;
#191 = DIRECTION ( 'NONE',  ( -3.491481338843133355E-15, 1.224646799147353207E-16, -1.000000000000000000 ) ) ;
#192 = FACE_OUTER_BOUND ( 'NONE', #202, .T. ) ;
#193 = APPROVAL_DATE_TIME ( #190, #91 ) ;
#194 = DIRECTION ( 'NONE',  ( 0.0000000000000000000, 1.000000000000000000, 0.0000000000000000000 ) ) ;
#195 = CIRCLE ( 'NONE', #218, 0.1899999999999998079 ) ;
#196 = DIRECTION ( 'NONE',  ( 0.0000000000000000000, 1.000000000000000000, 0.0000000000000000000 ) ) ;
#197 = CARTESIAN_POINT ( 'NONE',  ( 1.326762908760390423E-13, -4.653657836759941941E-15, 38.00000000000000000 ) ) ;
#198 = EDGE_CURVE ( 'NONE', #68, #68, #153, .T. ) ;
#199 = PRODUCT_RELATED_PRODUCT_CATEGORY ( 'detail', '', ( #126 ) ) ;
#200 = CIRCLE ( 'NONE', #119, 1.499999999999996891 ) ;
#201 = EDGE_LOOP ( 'NONE', ( #64 ) ) ;
#202 = EDGE_LOOP ( 'NONE', ( #220 ) ) ;
#203 = LOCAL_TIME ( 8, 27, 24.00000000000000000, #7 ) ;
#204 = SHAPE_DEFINITION_REPRESENTATION ( #116, #159 ) ;
#205 = CIRCLE ( 'NONE', #112, 0.1322649730810373514 ) ;
#206 = CARTESIAN_POINT ( 'NONE',  ( 1.047444401652940007E-14, 1.424771793528755456E-33, 3.000000000000000000 ) ) ;
#207 = SECURITY_CLASSIFICATION_LEVEL ( 'unclassified' ) ;
#208 = DIRECTION ( 'NONE',  ( 4.275831445896958607E-31, 1.000000000000000000, 1.224646799147353207E-16 ) ) ;
#209 = PERSON_AND_ORGANIZATION_ROLE ( 'creator' ) ;
#210 = TOROIDAL_SURFACE ( 'NONE', #127, 2.189999999999999503, 2.000000000000000000 ) ;
#211 = DIRECTION ( 'NONE',  ( 0.0000000000000000000, -1.000000000000000000, 0.0000000000000000000 ) ) ;
#212 = COORDINATED_UNIVERSAL_TIME_OFFSET ( 1, 0, .AHEAD. ) ;
#213 = CARTESIAN_POINT ( 'NONE',  ( 1.745740669421566678E-14, -4.336808689942017736E-16, 5.000000000000000000 ) ) ;
#214 = ADVANCED_FACE ( 'NONE', ( #233, #281 ), #30, .T. ) ;
#215 = DIRECTION ( 'NONE',  ( -5.068236695755909637E-31, -1.000000000000000000, -1.426581805901986784E-16 ) ) ;
#216 = AXIS2_PLACEMENT_3D ( 'NONE', #256, #145, #31 ) ;
#217 = CARTESIAN_POINT ( 'NONE',  ( 4.400787554541419292E-14, 1.499999999999995559, 12.60435651075132313 ) ) ;
#218 = AXIS2_PLACEMENT_3D ( 'NONE', #59, #178, #37 ) ;
#219 = EDGE_LOOP ( 'NONE', ( #156 ) ) ;
#220 = ORIENTED_EDGE ( 'NONE', *, *, #32, .F. ) ;
#221 =( NAMED_UNIT ( * ) PLANE_ANGLE_UNIT ( ) SI_UNIT ( $, .RADIAN. ) );
#222 = AXIS2_PLACEMENT_3D ( 'NONE', #123, #103, #73 ) ;
#223 = ORIENTED_EDGE ( 'NONE', *, *, #282, .T. ) ;
#224 = CARTESIAN_POINT ( 'NONE',  ( 1.745740669421566362E-14, 0.1899999999999991973, 4.999999999999999112 ) ) ;
#225 = EDGE_CURVE ( 'NONE', #161, #161, #195, .T. ) ;
#226 = FACE_OUTER_BOUND ( 'NONE', #235, .T. ) ;
#227 = DIRECTION ( 'NONE',  ( -4.275831445896958607E-31, -1.000000000000000000, -1.224646799147353207E-16 ) ) ;
#228 = CARTESIAN_POINT ( 'NONE',  ( 1.047444401652940007E-14, 0.1899999999999991418, 3.000000000000000000 ) ) ;
#229 = DIRECTION ( 'NONE',  ( -4.275831445896958607E-31, -1.000000000000000000, -1.224646799147353207E-16 ) ) ;
#230 = DATE_AND_TIME ( #58, #70 ) ;
#231 = CYLINDRICAL_SURFACE ( 'NONE', #152, 0.1899999999999996969 ) ;
#232 = APPROVAL_STATUS ( 'not_yet_approved' ) ;
#233 = FACE_OUTER_BOUND ( 'NONE', #111, .T. ) ;
#234 = PRODUCT_DEFINITION_FORMATION_WITH_SPECIFIED_SOURCE ( 'ANY', '', #126, .NOT_KNOWN. ) ;
#235 = EDGE_LOOP ( 'NONE', ( #110 ) ) ;
#236 = ADVANCED_FACE ( 'NONE', ( #275, #78 ), #96, .T. ) ;
#237 = CONICAL_SURFACE ( 'NONE', #104, 1.499999999999996891, 0.1745329251994260367 ) ;
#238 = EDGE_LOOP ( 'NONE', ( #273 ) ) ;
#239 = MANIFOLD_SOLID_BREP ( 'Corps-Déplacer/Copier1[1]', #65 ) ;
#240 = APPROVAL ( #271, 'UNSPECIFIED' ) ;
#241 = MANIFOLD_SOLID_BREP ( 'Corps-Déplacer/Copier1[2]', #63 ) ;
#242 = CC_DESIGN_APPROVAL ( #272, ( #234 ) ) ;
#243 = AXIS2_PLACEMENT_3D ( 'NONE', #169, #8, #69 ) ;
#244 = CARTESIAN_POINT ( 'NONE',  ( 4.400787554541419292E-14, -1.543588485620371042E-15, 12.60435651075132313 ) ) ;
#245 = EDGE_LOOP ( 'NONE', ( #261 ) ) ;
#246 = DATE_AND_TIME ( #188, #93 ) ;
#247 = CARTESIAN_POINT ( 'NONE',  ( -1.182959891489475930E-31, 0.1322649730810373514, -3.388131789017201356E-17 ) ) ;
#248 = FACE_OUTER_BOUND ( 'NONE', #201, .T. ) ;
#249 = PERSON_AND_ORGANIZATION ( #2, #155 ) ;
#250 = DIRECTION ( 'NONE',  ( 0.0000000000000000000, 1.000000000000000000, 0.0000000000000000000 ) ) ;
#251 =( GEOMETRIC_REPRESENTATION_CONTEXT ( 3 ) GLOBAL_UNCERTAINTY_ASSIGNED_CONTEXT ( ( #171 ) ) GLOBAL_UNIT_ASSIGNED_CONTEXT ( ( #47, #221, #185 ) ) REPRESENTATION_CONTEXT ( 'NONE', 'WORKASPACE' ) );
#252 = FACE_BOUND ( 'NONE', #245, .T. ) ;
#253 = AXIS2_PLACEMENT_3D ( 'NONE', #268, #174, #140 ) ;
#254 = DATE_TIME_ROLE ( 'classification_date' ) ;
#255 = CIRCLE ( 'NONE', #222, 0.1899999999999995304 ) ;
#256 = CARTESIAN_POINT ( 'NONE',  ( 3.491481338843131876E-16, -1.224646799147352653E-17, 0.09999999999999995004 ) ) ;
#257 = FACE_BOUND ( 'NONE', #283, .T. ) ;
#258 = PERSON_AND_ORGANIZATION_ROLE ( 'creator' ) ;
#259 = CARTESIAN_POINT ( 'NONE',  ( 1.326762908760390423E-13, 1.199999999999998845, 38.00000000000000000 ) ) ;
#260 = CC_DESIGN_SECURITY_CLASSIFICATION ( #128, ( #234 ) ) ;
#261 = ORIENTED_EDGE ( 'NONE', *, *, #21, .F. ) ;
#262 = EDGE_LOOP ( 'NONE', ( #158 ) ) ;
#263 = ORIENTED_EDGE ( 'NONE', *, *, #182, .T. ) ;
#264 = PLANE ( 'NONE',  #79 ) ;
#265 = CIRCLE ( 'NONE', #243, 1.200000000000003286 ) ;
#266 = DIRECTION ( 'NONE',  ( -3.491481338843133355E-15, 1.224646799147353207E-16, -1.000000000000000000 ) ) ;
#267 = APPROVAL_ROLE ( '' ) ;
#268 = CARTESIAN_POINT ( 'NONE',  ( 0.0000000000000000000, 0.0000000000000000000, 0.0000000000000000000 ) ) ;
#269 = APPLICATION_CONTEXT ( 'configuration controlled 3d designs of mechanical parts and assemblies' ) ;
#270 = DIRECTION ( 'NONE',  ( 3.491481338843133355E-15, -1.224646799147353207E-16, 1.000000000000000000 ) ) ;
#271 = APPROVAL_STATUS ( 'not_yet_approved' ) ;
#272 = APPROVAL ( #232, 'UNSPECIFIED' ) ;
#273 = ORIENTED_EDGE ( 'NONE', *, *, #225, .F. ) ;
#274 = PERSON_AND_ORGANIZATION ( #2, #155 ) ;
#275 = FACE_OUTER_BOUND ( 'NONE', #131, .T. ) ;
#276 = ORIENTED_EDGE ( 'NONE', *, *, #282, .F. ) ;
#277 = AXIS2_PLACEMENT_3D ( 'NONE', #105, #151, #196 ) ;
#278 = DIRECTION ( 'NONE',  ( 1.000000000000000000, 0.0000000000000000000, 0.0000000000000000000 ) ) ;
#279 = DIRECTION ( 'NONE',  ( -3.491481338843133355E-15, 1.224646799147353207E-16, -1.000000000000000000 ) ) ;
#280 = PERSON_AND_ORGANIZATION ( #2, #155 ) ;
#281 = FACE_OUTER_BOUND ( 'NONE', #49, .T. ) ;
#282 = EDGE_CURVE ( 'NONE', #23, #23, #255, .T. ) ;
#283 = EDGE_LOOP ( 'NONE', ( #43 ) ) ;
ENDSEC;
END-ISO-10303-21;
