ISO-10303-21;
HEADER;
FILE_DESCRIPTION (( 'STEP AP203' ),
    '1' );
FILE_NAME ('326998.step',
    '2021-11-30T09:57:09',
    ( '' ),
    ( '' ),
    'SwSTEP 2.0',
    'SolidWorks 2019',
    '' );
FILE_SCHEMA (( 'CONFIG_CONTROL_DESIGN' ));
ENDSEC;

DATA;
#1 = AXIS2_PLACEMENT_3D ( 'NONE', #69, #92, #164 ) ;
#2 = DIRECTION ( 'NONE',  ( -4.275831445896959482E-31, -1.000000000000000000, -1.224646799147353454E-16 ) ) ;
#3 = CALENDAR_DATE ( 2021, 30, 11 ) ;
#4 = AXIS2_PLACEMENT_3D ( 'NONE', #243, #250, #201 ) ;
#5 = CYLINDRICAL_SURFACE ( 'NONE', #35, 1.249999999999998890 ) ;
#6 = EDGE_LOOP ( 'NONE', ( #13 ) ) ;
#7 = EDGE_LOOP ( 'NONE', ( #193 ) ) ;
#8 = AXIS2_PLACEMENT_3D ( 'NONE', #258, #107, #303 ) ;
#9 = DIRECTION ( 'NONE',  ( 0.0000000000000000000, 1.000000000000000000, 0.0000000000000000000 ) ) ;
#10 = DIRECTION ( 'NONE',  ( -3.491481338843133355E-15, 1.224646799147353454E-16, -1.000000000000000000 ) ) ;
#11 = EDGE_LOOP ( 'NONE', ( #94 ) ) ;
#12 = DIRECTION ( 'NONE',  ( -3.491481338843133355E-15, 1.224646799147353454E-16, -1.000000000000000000 ) ) ;
#13 = ORIENTED_EDGE ( 'NONE', *, *, #206, .T. ) ;
#14 = DIRECTION ( 'NONE',  ( -3.491481338843133355E-15, 1.224646799147353454E-16, -1.000000000000000000 ) ) ;
#15 =( NAMED_UNIT ( * ) PLANE_ANGLE_UNIT ( ) SI_UNIT ( $, .RADIAN. ) );
#16 = CARTESIAN_POINT ( 'NONE',  ( 2.129803616694311221E-13, 8.998558695971049855E-33, 61.00000000000000000 ) ) ;
#17 = PLANE ( 'NONE',  #18 ) ;
#18 = AXIS2_PLACEMENT_3D ( 'NONE', #34, #235, #109 ) ;
#19 = DESIGN_CONTEXT ( 'detailed design', #97, 'design' ) ;
#20 = APPROVAL_DATE_TIME ( #41, #253 ) ;
#21 = PLANE ( 'NONE',  #277 ) ;
#22 = DIRECTION ( 'NONE',  ( 3.491481338843133355E-15, -1.224646799147353454E-16, 1.000000000000000000 ) ) ;
#23 = CC_DESIGN_DATE_AND_TIME_ASSIGNMENT ( #158, #286, ( #194 ) ) ;
#24 = AXIS2_PLACEMENT_3D ( 'NONE', #33, #80, #2 ) ;
#25 = FACE_OUTER_BOUND ( 'NONE', #242, .T. ) ;
#26 = EDGE_LOOP ( 'NONE', ( #291 ) ) ;
#27 =( GEOMETRIC_REPRESENTATION_CONTEXT ( 3 ) GLOBAL_UNCERTAINTY_ASSIGNED_CONTEXT ( ( #252 ) ) GLOBAL_UNIT_ASSIGNED_CONTEXT ( ( #275, #15, #132 ) ) REPRESENTATION_CONTEXT ( 'NONE', 'WORKASPACE' ) );
#28 = EDGE_LOOP ( 'NONE', ( #289 ) ) ;
#29 = APPROVAL ( #64, 'UNSPECIFIED' ) ;
#30 = CARTESIAN_POINT ( 'NONE',  ( 8.849961221477469775E-14, 1.280384493975577298, 25.34729635533384595 ) ) ;
#31 = VERTEX_POINT ( 'NONE', #175 ) ;
#32 = CARTESIAN_POINT ( 'NONE',  ( 3.623617532978461367E-14, 1.249999999999996891, 10.37845310145380751 ) ) ;
#33 = CARTESIAN_POINT ( 'NONE',  ( 3.491481338843133355E-14, 1.101198620419467490E-32, 10.00000000000000000 ) ) ;
#34 = CARTESIAN_POINT ( 'NONE',  ( 3.491481338843133355E-14, 1.101198620419467490E-32, 10.00000000000000000 ) ) ;
#35 = AXIS2_PLACEMENT_3D ( 'NONE', #100, #10, #199 ) ;
#36 = COORDINATED_UNIVERSAL_TIME_OFFSET ( 1, 0, .AHEAD. ) ;
#37 = DIRECTION ( 'NONE',  ( -3.491481338843133355E-15, 1.224646799147353454E-16, -1.000000000000000000 ) ) ;
#38 = APPROVAL_PERSON_ORGANIZATION ( #39, #302, #207 ) ;
#39 = PERSON_AND_ORGANIZATION ( #225, #168 ) ;
#40 = DIRECTION ( 'NONE',  ( -3.491481338843133355E-15, 1.224646799147353454E-16, -1.000000000000000000 ) ) ;
#41 = DATE_AND_TIME ( #134, #123 ) ;
#42 = EDGE_CURVE ( 'NONE', #31, #31, #219, .T. ) ;
#43 = CALENDAR_DATE ( 2021, 30, 11 ) ;
#44 = AXIS2_PLACEMENT_3D ( 'NONE', #115, #178, #117 ) ;
#45 = DIRECTION ( 'NONE',  ( -3.491481338843133355E-15, 1.224646799147353454E-16, -1.000000000000000000 ) ) ;
#46 = PERSON_AND_ORGANIZATION_ROLE ( 'creator' ) ;
#47 = DIRECTION ( 'NONE',  ( 0.0000000000000000000, 1.000000000000000000, 0.0000000000000000000 ) ) ;
#48 = CIRCLE ( 'NONE', #192, 1.500000000000001332 ) ;
#49 = CC_DESIGN_PERSON_AND_ORGANIZATION_ASSIGNMENT ( #106, #82, ( #188 ) ) ;
#50 = ORIENTED_EDGE ( 'NONE', *, *, #110, .F. ) ;
#51 = EDGE_CURVE ( 'NONE', #298, #298, #260, .T. ) ;
#52 = FACE_OUTER_BOUND ( 'NONE', #271, .T. ) ;
#53 = CARTESIAN_POINT ( 'NONE',  ( 3.491481338843133355E-14, 1.468499999999998584, 10.00000000000000000 ) ) ;
#54 = DIRECTION ( 'NONE',  ( 4.275831445896959482E-31, 1.000000000000000000, 1.224646799147353454E-16 ) ) ;
#55 = APPLICATION_PROTOCOL_DEFINITION ( 'international standard', 'config_control_design', 1994, #97 ) ;
#56 = DIRECTION ( 'NONE',  ( 0.0000000000000000000, 1.000000000000000000, 0.0000000000000000000 ) ) ;
#57 = AXIS2_PLACEMENT_3D ( 'NONE', #218, #190, #9 ) ;
#58 = AXIS2_PLACEMENT_3D ( 'NONE', #137, #153, #274 ) ;
#59 = COORDINATED_UNIVERSAL_TIME_OFFSET ( 1, 0, .AHEAD. ) ;
#60 = CARTESIAN_POINT ( 'NONE',  ( 8.728703347107833388E-14, -3.061616997868383831E-15, 25.00000000000000000 ) ) ;
#61 = ADVANCED_FACE ( 'NONE', ( #169 ), #181, .F. ) ;
#62 = PERSON_AND_ORGANIZATION ( #225, #168 ) ;
#63 = MANIFOLD_SOLID_BREP ( 'Corps-Déplacer/Copier1[2]', #112 ) ;
#64 = APPROVAL_STATUS ( 'not_yet_approved' ) ;
#65 = PERSON_AND_ORGANIZATION_ROLE ( 'classification_officer' ) ;
#66 = DIRECTION ( 'NONE',  ( 0.0000000000000000000, 1.000000000000000000, 0.0000000000000000000 ) ) ;
#67 = CALENDAR_DATE ( 2021, 30, 11 ) ;
#68 = CC_DESIGN_APPROVAL ( #253, ( #194 ) ) ;
#69 = CARTESIAN_POINT ( 'NONE',  ( 2.129803616694311221E-13, -7.470345474798856659E-15, 61.00000000000000000 ) ) ;
#70 = ADVANCED_FACE ( 'NONE', ( #297, #251 ), #236, .F. ) ;
#71 = ORIENTED_EDGE ( 'NONE', *, *, #73, .F. ) ;
#72 = CONICAL_SURFACE ( 'NONE', #182, 1.249999999999998224, 0.5235987755982927094 ) ;
#73 = EDGE_CURVE ( 'NONE', #196, #196, #165, .T. ) ;
#74 = EDGE_LOOP ( 'NONE', ( #244 ) ) ;
#75 = PRODUCT_DEFINITION_FORMATION_WITH_SPECIFIED_SOURCE ( 'ANY', '', #188, .NOT_KNOWN. ) ;
#76 = EDGE_LOOP ( 'NONE', ( #71 ) ) ;
#77 = PERSON_AND_ORGANIZATION ( #225, #168 ) ;
#78 = ORIENTED_EDGE ( 'NONE', *, *, #278, .T. ) ;
#79 = DIRECTION ( 'NONE',  ( 4.275831445896959482E-31, 1.000000000000000000, 1.224646799147353454E-16 ) ) ;
#80 = DIRECTION ( 'NONE',  ( 3.491481338843133355E-15, -1.224646799147353454E-16, 1.000000000000000000 ) ) ;
#81 = SECURITY_CLASSIFICATION ( '', '', #301 ) ;
#82 = PERSON_AND_ORGANIZATION_ROLE ( 'design_owner' ) ;
#83 = FACE_OUTER_BOUND ( 'NONE', #221, .T. ) ;
#84 = AXIS2_PLACEMENT_3D ( 'NONE', #222, #125, #95 ) ;
#85 = CIRCLE ( 'NONE', #88, 1.468499999999999917 ) ;
#86 = APPROVAL_DATE_TIME ( #156, #29 ) ;
#87 = PERSON_AND_ORGANIZATION_ROLE ( 'creator' ) ;
#88 = AXIS2_PLACEMENT_3D ( 'NONE', #288, #259, #140 ) ;
#89 = FACE_OUTER_BOUND ( 'NONE', #26, .T. ) ;
#90 = DIRECTION ( 'NONE',  ( 3.934484053906512364E-31, 1.000000000000000000, 1.107458807441782974E-16 ) ) ;
#91 = AXIS2_PLACEMENT_3D ( 'NONE', #228, #171, #128 ) ;
#92 = DIRECTION ( 'NONE',  ( -3.491481338843133355E-15, 1.224646799147353454E-16, -1.000000000000000000 ) ) ;
#93 = ADVANCED_FACE ( 'NONE', ( #135 ), #21, .F. ) ;
#94 = ORIENTED_EDGE ( 'NONE', *, *, #51, .F. ) ;
#95 = DIRECTION ( 'NONE',  ( 0.0000000000000000000, 1.000000000000000000, 0.0000000000000000000 ) ) ;
#96 = AXIS2_PLACEMENT_3D ( 'NONE', #281, #276, #54 ) ;
#97 = APPLICATION_CONTEXT ( 'configuration controlled 3d designs of mechanical parts and assemblies' ) ;
#98 = AXIS2_PLACEMENT_3D ( 'NONE', #138, #22, #205 ) ;
#99 = ORIENTED_EDGE ( 'NONE', *, *, #73, .T. ) ;
#100 = CARTESIAN_POINT ( 'NONE',  ( 0.0000000000000000000, 0.0000000000000000000, 0.0000000000000000000 ) ) ;
#101 = ORIENTED_EDGE ( 'NONE', *, *, #170, .T. ) ;
#102 = CARTESIAN_POINT ( 'NONE',  ( 2.119329172677781757E-13, 1.499999999999994005, 60.69999999999999574 ) ) ;
#103 = ADVANCED_FACE ( 'NONE', ( #247, #83 ), #139, .T. ) ;
#104 = VERTEX_POINT ( 'NONE', #32 ) ;
#105 = DIRECTION ( 'NONE',  ( 0.0000000000000000000, 1.000000000000000000, 0.0000000000000000000 ) ) ;
#106 = PERSON_AND_ORGANIZATION ( #225, #168 ) ;
#107 = DIRECTION ( 'NONE',  ( 3.491481338843133355E-15, -1.224646799147353454E-16, 1.000000000000000000 ) ) ;
#108 = LOCAL_TIME ( 10, 57, 9.000000000000000000, #59 ) ;
#109 = DIRECTION ( 'NONE',  ( -4.275831445896959482E-31, -1.000000000000000000, -1.224646799147353454E-16 ) ) ;
#110 = EDGE_CURVE ( 'NONE', #151, #151, #126, .T. ) ;
#111 = APPROVAL_DATE_TIME ( #180, #302 ) ;
#112 = CLOSED_SHELL ( 'NONE', ( #61, #103, #293, #120 ) ) ;
#113 = COORDINATED_UNIVERSAL_TIME_OFFSET ( 1, 0, .AHEAD. ) ;
#114 = APPROVAL_STATUS ( 'not_yet_approved' ) ;
#115 = CARTESIAN_POINT ( 'NONE',  ( 8.849961221477469775E-14, -3.104148534859897544E-15, 25.34729635533384595 ) ) ;
#116 = CIRCLE ( 'NONE', #290, 1.468499999999999917 ) ;
#117 = DIRECTION ( 'NONE',  ( 0.0000000000000000000, 1.000000000000000000, 0.0000000000000000000 ) ) ;
#118 = PERSON_AND_ORGANIZATION ( #225, #168 ) ;
#119 = FACE_BOUND ( 'NONE', #28, .T. ) ;
#120 = ADVANCED_FACE ( 'NONE', ( #299 ), #17, .T. ) ;
#121 = PRODUCT_RELATED_PRODUCT_CATEGORY ( 'detail', '', ( #188 ) ) ;
#122 = EDGE_LOOP ( 'NONE', ( #292 ) ) ;
#123 = LOCAL_TIME ( 10, 57, 9.000000000000000000, #36 ) ;
#124 = ORIENTED_EDGE ( 'NONE', *, *, #110, .T. ) ;
#125 = DIRECTION ( 'NONE',  ( -3.491481338843133355E-15, 1.224646799147353454E-16, -1.000000000000000000 ) ) ;
#126 = CIRCLE ( 'NONE', #44, 1.280384493975580407 ) ;
#127 = EDGE_LOOP ( 'NONE', ( #189 ) ) ;
#128 = DIRECTION ( 'NONE',  ( 1.000000000000000000, 0.0000000000000000000, 0.0000000000000000000 ) ) ;
#129 = ADVANCED_FACE ( 'NONE', ( #89 ), #296, .F. ) ;
#130 = VERTEX_POINT ( 'NONE', #173 ) ;
#131 = CYLINDRICAL_SURFACE ( 'NONE', #58, 1.499999999999998668 ) ;
#132 =( NAMED_UNIT ( * ) SI_UNIT ( $, .STERADIAN. ) SOLID_ANGLE_UNIT ( ) );
#133 = FACE_OUTER_BOUND ( 'NONE', #122, .T. ) ;
#134 = CALENDAR_DATE ( 2021, 30, 11 ) ;
#135 = FACE_OUTER_BOUND ( 'NONE', #11, .T. ) ;
#136 = APPROVAL_ROLE ( '' ) ;
#137 = CARTESIAN_POINT ( 'NONE',  ( 0.0000000000000000000, 0.0000000000000000000, 0.0000000000000000000 ) ) ;
#138 = CARTESIAN_POINT ( 'NONE',  ( 9.284825720332949933E-14, -3.256678468404562521E-15, 26.59279778195630328 ) ) ;
#139 = CONICAL_SURFACE ( 'NONE', #8, 1.468499999999998584, 0.5235987755982924874 ) ;
#140 = DIRECTION ( 'NONE',  ( 0.0000000000000000000, 1.000000000000000000, 0.0000000000000000000 ) ) ;
#141 = CC_DESIGN_PERSON_AND_ORGANIZATION_ASSIGNMENT ( #255, #65, ( #81 ) ) ;
#142 = ADVANCED_FACE ( 'NONE', ( #209, #186 ), #131, .T. ) ;
#143 = EDGE_LOOP ( 'NONE', ( #50 ) ) ;
#144 = EDGE_LOOP ( 'NONE', ( #198 ) ) ;
#145 = APPROVAL_PERSON_ORGANIZATION ( #118, #29, #136 ) ;
#146 = ORIENTED_EDGE ( 'NONE', *, *, #234, .F. ) ;
#147 = VERTEX_POINT ( 'NONE', #295 ) ;
#148 = EDGE_CURVE ( 'NONE', #177, #177, #48, .T. ) ;
#149 = FACE_OUTER_BOUND ( 'NONE', #7, .T. ) ;
#150 = ORIENTED_EDGE ( 'NONE', *, *, #184, .F. ) ;
#151 = VERTEX_POINT ( 'NONE', #30 ) ;
#152 = DIRECTION ( 'NONE',  ( -3.491481338843133355E-15, 1.224646799147353454E-16, -1.000000000000000000 ) ) ;
#153 = DIRECTION ( 'NONE',  ( -3.491481338843133355E-15, 1.224646799147353454E-16, -1.000000000000000000 ) ) ;
#154 = APPROVAL_ROLE ( '' ) ;
#155 = CARTESIAN_POINT ( 'NONE',  ( 3.623617532978461367E-14, -1.270993937079632838E-15, 10.37845310145380751 ) ) ;
#156 = DATE_AND_TIME ( #43, #108 ) ;
#157 = DIRECTION ( 'NONE',  ( 0.0000000000000000000, 1.000000000000000000, 0.0000000000000000000 ) ) ;
#158 = DATE_AND_TIME ( #256, #241 ) ;
#159 = CC_DESIGN_PERSON_AND_ORGANIZATION_ASSIGNMENT ( #282, #46, ( #194 ) ) ;
#160 = CC_DESIGN_APPROVAL ( #29, ( #81 ) ) ;
#161 = FACE_BOUND ( 'NONE', #143, .T. ) ;
#162 = SHAPE_DEFINITION_REPRESENTATION ( #214, #284 ) ;
#163 = CC_DESIGN_PERSON_AND_ORGANIZATION_ASSIGNMENT ( #62, #87, ( #75 ) ) ;
#164 = DIRECTION ( 'NONE',  ( 0.0000000000000000000, 1.000000000000000000, 0.0000000000000000000 ) ) ;
#165 = CIRCLE ( 'NONE', #300, 1.249999999999999778 ) ;
#166 = EDGE_LOOP ( 'NONE', ( #99 ) ) ;
#167 = CIRCLE ( 'NONE', #265, 1.324162432702594261 ) ;
#168 = ORGANIZATION ( 'UNSPECIFIED', 'UNSPECIFIED', '' ) ;
#169 = FACE_OUTER_BOUND ( 'NONE', #174, .T. ) ;
#170 = EDGE_CURVE ( 'NONE', #267, #267, #237, .T. ) ;
#171 = DIRECTION ( 'NONE',  ( 0.0000000000000000000, 0.0000000000000000000, 1.000000000000000000 ) ) ;
#172 = EDGE_LOOP ( 'NONE', ( #150 ) ) ;
#173 = CARTESIAN_POINT ( 'NONE',  ( 3.491481338843133355E-14, 1.468499999999998584, 10.00000000000000000 ) ) ;
#174 = EDGE_LOOP ( 'NONE', ( #78 ) ) ;
#175 = CARTESIAN_POINT ( 'NONE',  ( 9.284825720332949933E-14, 1.499999999999992673, 26.59279778195630328 ) ) ;
#176 = DIRECTION ( 'NONE',  ( -3.491481338843133355E-15, 1.224646799147353454E-16, -1.000000000000000000 ) ) ;
#177 = VERTEX_POINT ( 'NONE', #102 ) ;
#178 = DIRECTION ( 'NONE',  ( -3.491481338843133355E-15, 1.224646799147353454E-16, -1.000000000000000000 ) ) ;
#179 = AXIS2_PLACEMENT_3D ( 'NONE', #249, #224, #187 ) ;
#180 = DATE_AND_TIME ( #3, #230 ) ;
#181 = PLANE ( 'NONE',  #179 ) ;
#182 = AXIS2_PLACEMENT_3D ( 'NONE', #155, #229, #47 ) ;
#183 = PERSON_AND_ORGANIZATION_ROLE ( 'design_supplier' ) ;
#184 = EDGE_CURVE ( 'NONE', #130, #130, #116, .T. ) ;
#185 = APPLICATION_CONTEXT ( 'configuration controlled 3d designs of mechanical parts and assemblies' ) ;
#186 = FACE_OUTER_BOUND ( 'NONE', #144, .T. ) ;
#187 = DIRECTION ( 'NONE',  ( -4.275831445896959482E-31, -1.000000000000000000, -1.224646799147353454E-16 ) ) ;
#188 = PRODUCT ( '326998', '326998', '', ( #266 ) ) ;
#189 = ORIENTED_EDGE ( 'NONE', *, *, #42, .F. ) ;
#190 = DIRECTION ( 'NONE',  ( -3.491481338843133355E-15, 1.224646799147353454E-16, -1.000000000000000000 ) ) ;
#191 = CLOSED_SHELL ( 'NONE', ( #129, #215, #261, #70, #195, #142, #233, #93 ) ) ;
#192 = AXIS2_PLACEMENT_3D ( 'NONE', #211, #40, #56 ) ;
#193 = ORIENTED_EDGE ( 'NONE', *, *, #184, .T. ) ;
#194 = PRODUCT_DEFINITION ( 'UNKNOWN', '', #75, #19 ) ;
#195 = ADVANCED_FACE ( 'NONE', ( #161, #133 ), #263, .T. ) ;
#196 = VERTEX_POINT ( 'NONE', #273 ) ;
#197 = ORIENTED_EDGE ( 'NONE', *, *, #170, .F. ) ;
#198 = ORIENTED_EDGE ( 'NONE', *, *, #148, .T. ) ;
#199 = DIRECTION ( 'NONE',  ( 4.275831445896960358E-31, 1.000000000000000000, 1.224646799147353454E-16 ) ) ;
#200 = FACE_OUTER_BOUND ( 'NONE', #268, .T. ) ;
#201 = DIRECTION ( 'NONE',  ( 4.275831445896960358E-31, 1.000000000000000000, 1.224646799147353454E-16 ) ) ;
#202 = FACE_BOUND ( 'NONE', #6, .T. ) ;
#203 = APPROVAL_PERSON_ORGANIZATION ( #77, #253, #154 ) ;
#204 = CARTESIAN_POINT ( 'NONE',  ( -9.447367021991492140E-31, 3.313690282442020566E-32, -2.705833457245909677E-16 ) ) ;
#205 = DIRECTION ( 'NONE',  ( 0.0000000000000000000, -1.000000000000000000, 0.0000000000000000000 ) ) ;
#206 = EDGE_CURVE ( 'NONE', #104, #104, #210, .T. ) ;
#207 = APPROVAL_ROLE ( '' ) ;
#208 = PERSON_AND_ORGANIZATION ( #225, #168 ) ;
#209 = FACE_OUTER_BOUND ( 'NONE', #127, .T. ) ;
#210 = CIRCLE ( 'NONE', #279, 1.249999999999998224 ) ;
#211 = CARTESIAN_POINT ( 'NONE',  ( 2.119329172677781757E-13, -7.433606070824434221E-15, 60.69999999999999574 ) ) ;
#212 = DATE_AND_TIME ( #67, #257 ) ;
#213 = FACE_OUTER_BOUND ( 'NONE', #166, .T. ) ;
#214 = PRODUCT_DEFINITION_SHAPE ( 'NONE', 'NONE',  #194 ) ;
#215 = ADVANCED_FACE ( 'NONE', ( #200, #202 ), #72, .T. ) ;
#216 = CC_DESIGN_APPROVAL ( #302, ( #75 ) ) ;
#217 = ORIENTED_EDGE ( 'NONE', *, *, #206, .F. ) ;
#218 = CARTESIAN_POINT ( 'NONE',  ( 2.129803616694311221E-13, -7.470345474798856659E-15, 61.00000000000000000 ) ) ;
#219 = CIRCLE ( 'NONE', #84, 1.499999999999996003 ) ;
#220 = CONICAL_SURFACE ( 'NONE', #1, 1.200000000000001510, 0.7853981633974453924 ) ;
#221 = EDGE_LOOP ( 'NONE', ( #101 ) ) ;
#222 = CARTESIAN_POINT ( 'NONE',  ( 9.284825720332949933E-14, -3.256678468404562521E-15, 26.59279778195630328 ) ) ;
#223 = VERTEX_POINT ( 'NONE', #53 ) ;
#224 = DIRECTION ( 'NONE',  ( 3.491481338843133355E-15, -1.224646799147353454E-16, 1.000000000000000000 ) ) ;
#225 = PERSON ( 'UNSPECIFIED', 'UNSPECIFIED', 'UNSPECIFIED', ('UNSPECIFIED'), ('UNSPECIFIED'), ('UNSPECIFIED') ) ;
#226 = AXIS2_PLACEMENT_3D ( 'NONE', #285, #45, #90 ) ;
#227 = CARTESIAN_POINT ( 'NONE',  ( 3.623617532978461367E-14, -1.270993937079632838E-15, 10.37845310145380751 ) ) ;
#228 = CARTESIAN_POINT ( 'NONE',  ( 0.0000000000000000000, 0.0000000000000000000, 0.0000000000000000000 ) ) ;
#229 = DIRECTION ( 'NONE',  ( -3.491481338843133355E-15, 1.224646799147353454E-16, -1.000000000000000000 ) ) ;
#230 = LOCAL_TIME ( 10, 57, 9.000000000000000000, #283 ) ;
#231 = COORDINATED_UNIVERSAL_TIME_OFFSET ( 1, 0, .AHEAD. ) ;
#232 = CARTESIAN_POINT ( 'NONE',  ( 3.491481338843133355E-14, -1.224646799147353454E-15, 10.00000000000000000 ) ) ;
#233 = ADVANCED_FACE ( 'NONE', ( #25, #119 ), #220, .T. ) ;
#234 = EDGE_CURVE ( 'NONE', #223, #223, #85, .T. ) ;
#235 = DIRECTION ( 'NONE',  ( 3.491481338843133355E-15, -1.224646799147353454E-16, 1.000000000000000000 ) ) ;
#236 = TOROIDAL_SURFACE ( 'NONE', #96, 3.250000000000000000, 2.000000000000000000 ) ;
#237 = CIRCLE ( 'NONE', #226, 1.468499999999998584 ) ;
#238 = FACE_OUTER_BOUND ( 'NONE', #240, .T. ) ;
#239 = CC_DESIGN_PERSON_AND_ORGANIZATION_ASSIGNMENT ( #208, #183, ( #75 ) ) ;
#240 = EDGE_LOOP ( 'NONE', ( #217 ) ) ;
#241 = LOCAL_TIME ( 10, 57, 9.000000000000000000, #113 ) ;
#242 = EDGE_LOOP ( 'NONE', ( #262 ) ) ;
#243 = CARTESIAN_POINT ( 'NONE',  ( 0.0000000000000000000, 0.0000000000000000000, 0.0000000000000000000 ) ) ;
#244 = ORIENTED_EDGE ( 'NONE', *, *, #278, .F. ) ;
#245 = CYLINDRICAL_SURFACE ( 'NONE', #4, 1.468499999999999250 ) ;
#246 = APPROVAL_STATUS ( 'not_yet_approved' ) ;
#247 = FACE_BOUND ( 'NONE', #74, .T. ) ;
#248 = CARTESIAN_POINT ( 'NONE',  ( 8.728703347107833388E-16, 1.468499999999998584, 0.2500000000000000000 ) ) ;
#249 = CARTESIAN_POINT ( 'NONE',  ( -4.723683510995746070E-31, 1.656845141221010283E-32, -1.352916728622954838E-16 ) ) ;
#250 = DIRECTION ( 'NONE',  ( -3.491481338843133355E-15, 1.224646799147353454E-16, -1.000000000000000000 ) ) ;
#251 = FACE_OUTER_BOUND ( 'NONE', #264, .T. ) ;
#252 = UNCERTAINTY_MEASURE_WITH_UNIT (LENGTH_MEASURE( 1.000000000000000082E-05 ), #275, 'distance_accuracy_value', 'NONE');
#253 = APPROVAL ( #246, 'UNSPECIFIED' ) ;
#254 = DIRECTION ( 'NONE',  ( 4.275831445896959482E-31, 1.000000000000000000, 1.224646799147353454E-16 ) ) ;
#255 = PERSON_AND_ORGANIZATION ( #225, #168 ) ;
#256 = CALENDAR_DATE ( 2021, 30, 11 ) ;
#257 = LOCAL_TIME ( 10, 57, 9.000000000000000000, #231 ) ;
#258 = CARTESIAN_POINT ( 'NONE',  ( 8.728703347107827472E-16, -3.061616997868381785E-17, 0.2499999999999998335 ) ) ;
#259 = DIRECTION ( 'NONE',  ( -3.491481338843133355E-15, 1.224646799147353454E-16, -1.000000000000000000 ) ) ;
#260 = CIRCLE ( 'NONE', #57, 1.200000000000001510 ) ;
#261 = ADVANCED_FACE ( 'NONE', ( #238, #213 ), #5, .T. ) ;
#262 = ORIENTED_EDGE ( 'NONE', *, *, #148, .F. ) ;
#263 = CONICAL_SURFACE ( 'NONE', #98, 1.499999999999996003, 0.1745329251994268971 ) ;
#264 = EDGE_LOOP ( 'NONE', ( #124 ) ) ;
#265 = AXIS2_PLACEMENT_3D ( 'NONE', #204, #12, #79 ) ;
#266 = MECHANICAL_CONTEXT ( 'NONE', #185, 'mechanical' ) ;
#267 = VERTEX_POINT ( 'NONE', #248 ) ;
#268 = EDGE_LOOP ( 'NONE', ( #146 ) ) ;
#269 = CC_DESIGN_DATE_AND_TIME_ASSIGNMENT ( #212, #280, ( #81 ) ) ;
#270 = CARTESIAN_POINT ( 'NONE',  ( 2.129803616694311221E-13, 1.199999999999993960, 61.00000000000000000 ) ) ;
#271 = EDGE_LOOP ( 'NONE', ( #197 ) ) ;
#272 = MANIFOLD_SOLID_BREP ( 'Corps-Déplacer/Copier1[1]', #191 ) ;
#273 = CARTESIAN_POINT ( 'NONE',  ( 8.728703347107833388E-14, 1.249999999999996669, 25.00000000000000000 ) ) ;
#274 = DIRECTION ( 'NONE',  ( 4.275831445896960358E-31, 1.000000000000000000, 1.224646799147353454E-16 ) ) ;
#275 =( LENGTH_UNIT ( ) NAMED_UNIT ( * ) SI_UNIT ( .MILLI., .METRE. ) );
#276 = DIRECTION ( 'NONE',  ( -3.491481338843133355E-15, 1.224646799147353454E-16, -1.000000000000000000 ) ) ;
#277 = AXIS2_PLACEMENT_3D ( 'NONE', #16, #176, #254 ) ;
#278 = EDGE_CURVE ( 'NONE', #147, #147, #167, .T. ) ;
#279 = AXIS2_PLACEMENT_3D ( 'NONE', #227, #14, #105 ) ;
#280 = DATE_TIME_ROLE ( 'classification_date' ) ;
#281 = CARTESIAN_POINT ( 'NONE',  ( 8.728703347107833388E-14, -3.035766082959412415E-15, 25.00000000000000000 ) ) ;
#282 = PERSON_AND_ORGANIZATION ( #225, #168 ) ;
#283 = COORDINATED_UNIVERSAL_TIME_OFFSET ( 1, 0, .AHEAD. ) ;
#284 = ADVANCED_BREP_SHAPE_REPRESENTATION ( '326998', ( #272, #63, #91 ), #27 ) ;
#285 = CARTESIAN_POINT ( 'NONE',  ( 8.728703347107827472E-16, -3.061616997868381785E-17, 0.2499999999999998335 ) ) ;
#286 = DATE_TIME_ROLE ( 'creation_date' ) ;
#287 = CC_DESIGN_SECURITY_CLASSIFICATION ( #81, ( #75 ) ) ;
#288 = CARTESIAN_POINT ( 'NONE',  ( 3.491481338843133355E-14, -1.224646799147353454E-15, 10.00000000000000000 ) ) ;
#289 = ORIENTED_EDGE ( 'NONE', *, *, #51, .T. ) ;
#290 = AXIS2_PLACEMENT_3D ( 'NONE', #232, #37, #66 ) ;
#291 = ORIENTED_EDGE ( 'NONE', *, *, #234, .T. ) ;
#292 = ORIENTED_EDGE ( 'NONE', *, *, #42, .T. ) ;
#293 = ADVANCED_FACE ( 'NONE', ( #52, #149 ), #245, .T. ) ;
#294 = APPLICATION_PROTOCOL_DEFINITION ( 'international standard', 'config_control_design', 1994, #185 ) ;
#295 = CARTESIAN_POINT ( 'NONE',  ( -3.785471652766323589E-31, 1.324162432702594261, -1.084202172485504434E-16 ) ) ;
#296 = PLANE ( 'NONE',  #24 ) ;
#297 = FACE_OUTER_BOUND ( 'NONE', #76, .T. ) ;
#298 = VERTEX_POINT ( 'NONE', #270 ) ;
#299 = FACE_OUTER_BOUND ( 'NONE', #172, .T. ) ;
#300 = AXIS2_PLACEMENT_3D ( 'NONE', #60, #152, #157 ) ;
#301 = SECURITY_CLASSIFICATION_LEVEL ( 'unclassified' ) ;
#302 = APPROVAL ( #114, 'UNSPECIFIED' ) ;
#303 = DIRECTION ( 'NONE',  ( -3.934484053906512364E-31, -1.000000000000000000, -1.107458807441782974E-16 ) ) ;
ENDSEC;
END-ISO-10303-21;
