ISO-10303-21;
HEADER;
FILE_DESCRIPTION (( 'STEP AP203' ),
    '1' );
FILE_NAME ('326996.step',
    '2021-11-30T09:57:09',
    ( '' ),
    ( '' ),
    'SwSTEP 2.0',
    'SolidWorks 2019',
    '' );
FILE_SCHEMA (( 'CONFIG_CONTROL_DESIGN' ));
ENDSEC;

DATA;
#1 = CARTESIAN_POINT ( 'NONE',  ( 0.0000000000000000000, 0.0000000000000000000, 0.0000000000000000000 ) ) ;
#2 = AXIS2_PLACEMENT_3D ( 'NONE', #104, #107, #243 ) ;
#3 = EDGE_LOOP ( 'NONE', ( #192 ) ) ;
#4 = APPROVAL_DATE_TIME ( #30, #133 ) ;
#5 = EDGE_CURVE ( 'NONE', #89, #89, #78, .T. ) ;
#6 = CARTESIAN_POINT ( 'NONE',  ( 8.849961221477469775E-14, -3.104148534859897544E-15, 25.34729635533384595 ) ) ;
#7 = AXIS2_PLACEMENT_3D ( 'NONE', #124, #268, #152 ) ;
#8 = CC_DESIGN_APPROVAL ( #238, ( #298 ) ) ;
#9 = COORDINATED_UNIVERSAL_TIME_OFFSET ( 1, 0, .AHEAD. ) ;
#10 = EDGE_LOOP ( 'NONE', ( #25 ) ) ;
#11 = DIRECTION ( 'NONE',  ( -3.491481338843133355E-15, 1.224646799147353454E-16, -1.000000000000000000 ) ) ;
#12 = CARTESIAN_POINT ( 'NONE',  ( 8.728703347107833388E-14, -3.061616997868383831E-15, 25.00000000000000000 ) ) ;
#13 = ADVANCED_BREP_SHAPE_REPRESENTATION ( '326996', ( #237, #38, #190 ), #99 ) ;
#14 = DIRECTION ( 'NONE',  ( -4.002625447289028277E-31, -1.000000000000000000, -1.126638904557158289E-16 ) ) ;
#15 = FACE_OUTER_BOUND ( 'NONE', #229, .T. ) ;
#16 = AXIS2_PLACEMENT_3D ( 'NONE', #258, #184, #163 ) ;
#17 = EDGE_CURVE ( 'NONE', #201, #201, #58, .T. ) ;
#18 = CARTESIAN_POINT ( 'NONE',  ( 9.334328656934240837E-14, -3.274041761223206859E-15, 26.73457982744675121 ) ) ;
#19 = CARTESIAN_POINT ( 'NONE',  ( 8.728703347107833388E-14, 1.224999999999996980, 25.00000000000000000 ) ) ;
#20 = DATE_AND_TIME ( #86, #64 ) ;
#21 = AXIS2_PLACEMENT_3D ( 'NONE', #45, #65, #158 ) ;
#22 = CARTESIAN_POINT ( 'NONE',  ( 8.552847072295026068E-47, 1.299162432702594128, 0.0000000000000000000 ) ) ;
#23 = EDGE_LOOP ( 'NONE', ( #253 ) ) ;
#24 = CARTESIAN_POINT ( 'NONE',  ( 2.119329172677781757E-13, 1.499999999999994005, 60.69999999999999574 ) ) ;
#25 = ORIENTED_EDGE ( 'NONE', *, *, #292, .F. ) ;
#26 = CARTESIAN_POINT ( 'NONE',  ( 8.849961221477469775E-14, 1.255384493975576943, 25.34729635533384595 ) ) ;
#27 = EDGE_LOOP ( 'NONE', ( #149 ) ) ;
#28 = CC_DESIGN_DATE_AND_TIME_ASSIGNMENT ( #234, #284, ( #126 ) ) ;
#29 = CIRCLE ( 'NONE', #144, 1.499999999999996003 ) ;
#30 = DATE_AND_TIME ( #51, #119 ) ;
#31 = EDGE_LOOP ( 'NONE', ( #169 ) ) ;
#32 = FACE_OUTER_BOUND ( 'NONE', #27, .T. ) ;
#33 = FACE_BOUND ( 'NONE', #162, .T. ) ;
#34 = FACE_OUTER_BOUND ( 'NONE', #10, .T. ) ;
#35 = EDGE_CURVE ( 'NONE', #180, #180, #295, .T. ) ;
#36 = DIRECTION ( 'NONE',  ( -4.275831445896959482E-31, -1.000000000000000000, -1.224646799147353454E-16 ) ) ;
#37 = AXIS2_PLACEMENT_3D ( 'NONE', #269, #11, #62 ) ;
#38 = MANIFOLD_SOLID_BREP ( 'Corps-Déplacer/Copier1[2]', #198 ) ;
#39 = APPROVAL_STATUS ( 'not_yet_approved' ) ;
#40 = CC_DESIGN_PERSON_AND_ORGANIZATION_ASSIGNMENT ( #49, #100, ( #126 ) ) ;
#41 = PERSON_AND_ORGANIZATION ( #288, #105 ) ;
#42 = LOCAL_TIME ( 10, 57, 9.000000000000000000, #165 ) ;
#43 = CARTESIAN_POINT ( 'NONE',  ( 3.491481338843133355E-14, 1.443499999999998673, 10.00000000000000000 ) ) ;
#44 = DIRECTION ( 'NONE',  ( -3.491481338843133355E-15, 1.224646799147353454E-16, -1.000000000000000000 ) ) ;
#45 = CARTESIAN_POINT ( 'NONE',  ( 0.0000000000000000000, 0.0000000000000000000, 0.0000000000000000000 ) ) ;
#46 = EDGE_LOOP ( 'NONE', ( #102 ) ) ;
#47 = CC_DESIGN_PERSON_AND_ORGANIZATION_ASSIGNMENT ( #41, #255, ( #156 ) ) ;
#48 = FACE_OUTER_BOUND ( 'NONE', #301, .T. ) ;
#49 = PERSON_AND_ORGANIZATION ( #288, #105 ) ;
#50 = LOCAL_TIME ( 10, 57, 9.000000000000000000, #289 ) ;
#51 = CALENDAR_DATE ( 2021, 30, 11 ) ;
#52 = PERSON_AND_ORGANIZATION ( #288, #105 ) ;
#53 = AXIS2_PLACEMENT_3D ( 'NONE', #12, #272, #220 ) ;
#54 = PLANE ( 'NONE',  #207 ) ;
#55 = ORIENTED_EDGE ( 'NONE', *, *, #172, .F. ) ;
#56 = CYLINDRICAL_SURFACE ( 'NONE', #266, 1.224999999999999201 ) ;
#57 = CARTESIAN_POINT ( 'NONE',  ( 8.728703347107827472E-16, -3.061616997868381785E-17, 0.2499999999999998335 ) ) ;
#58 = CIRCLE ( 'NONE', #146, 1.299162432702594128 ) ;
#59 = APPROVAL_PERSON_ORGANIZATION ( #223, #238, #134 ) ;
#60 = FACE_OUTER_BOUND ( 'NONE', #117, .T. ) ;
#61 = DIRECTION ( 'NONE',  ( -3.491481338843133355E-15, 1.224646799147353454E-16, -1.000000000000000000 ) ) ;
#62 = DIRECTION ( 'NONE',  ( 4.275831445896959482E-31, 1.000000000000000000, 1.224646799147353454E-16 ) ) ;
#63 = AXIS2_PLACEMENT_3D ( 'NONE', #244, #294, #36 ) ;
#64 = LOCAL_TIME ( 10, 57, 9.000000000000000000, #222 ) ;
#65 = DIRECTION ( 'NONE',  ( -3.491481338843133355E-15, 1.224646799147353454E-16, -1.000000000000000000 ) ) ;
#66 = EDGE_LOOP ( 'NONE', ( #123 ) ) ;
#67 = VERTEX_POINT ( 'NONE', #251 ) ;
#68 = CARTESIAN_POINT ( 'NONE',  ( 8.728703347107833388E-16, 1.443499999999998673, 0.2500000000000000000 ) ) ;
#69 = EDGE_LOOP ( 'NONE', ( #55 ) ) ;
#70 = CIRCLE ( 'NONE', #230, 1.200000000000001510 ) ;
#71 = CARTESIAN_POINT ( 'NONE',  ( 3.623617532978461367E-14, -1.270993937079632838E-15, 10.37845310145380751 ) ) ;
#72 = ADVANCED_FACE ( 'NONE', ( #48 ), #54, .F. ) ;
#73 = DIRECTION ( 'NONE',  ( -3.491481338843133355E-15, 1.224646799147353454E-16, -1.000000000000000000 ) ) ;
#74 = CALENDAR_DATE ( 2021, 30, 11 ) ;
#75 = DIRECTION ( 'NONE',  ( -3.491481338843133355E-15, 1.224646799147353454E-16, -1.000000000000000000 ) ) ;
#76 = PERSON_AND_ORGANIZATION_ROLE ( 'creator' ) ;
#77 = EDGE_LOOP ( 'NONE', ( #303 ) ) ;
#78 = CIRCLE ( 'NONE', #179, 1.443500000000000005 ) ;
#79 = FACE_OUTER_BOUND ( 'NONE', #116, .T. ) ;
#80 = CC_DESIGN_PERSON_AND_ORGANIZATION_ASSIGNMENT ( #166, #147, ( #88 ) ) ;
#81 = FACE_OUTER_BOUND ( 'NONE', #31, .T. ) ;
#82 = CARTESIAN_POINT ( 'NONE',  ( 0.0000000000000000000, 0.0000000000000000000, 0.0000000000000000000 ) ) ;
#83 = FACE_BOUND ( 'NONE', #118, .T. ) ;
#84 = CARTESIAN_POINT ( 'NONE',  ( 3.623617532978461367E-14, -1.270993937079632838E-15, 10.37845310145380751 ) ) ;
#85 = CARTESIAN_POINT ( 'NONE',  ( -2.777499791538872271E-31, 9.742157838562467201E-33, -7.955075573908604321E-17 ) ) ;
#86 = CALENDAR_DATE ( 2021, 30, 11 ) ;
#87 = CIRCLE ( 'NONE', #225, 1.443500000000000005 ) ;
#88 = PRODUCT_DEFINITION_FORMATION_WITH_SPECIFIED_SOURCE ( 'ANY', '', #156, .NOT_KNOWN. ) ;
#89 = VERTEX_POINT ( 'NONE', #182 ) ;
#90 = EDGE_LOOP ( 'NONE', ( #267 ) ) ;
#91 = DIRECTION ( 'NONE',  ( -3.491481338843133355E-15, 1.224646799147353454E-16, -1.000000000000000000 ) ) ;
#92 = ORIENTED_EDGE ( 'NONE', *, *, #101, .F. ) ;
#93 = APPLICATION_PROTOCOL_DEFINITION ( 'international standard', 'config_control_design', 1994, #257 ) ;
#94 = DIRECTION ( 'NONE',  ( 4.275831445896960358E-31, 1.000000000000000000, 1.224646799147353454E-16 ) ) ;
#96 = EDGE_LOOP ( 'NONE', ( #120 ) ) ;
#95 = CC_DESIGN_PERSON_AND_ORGANIZATION_ASSIGNMENT ( #52, #76, ( #88 ) ) ;
#97 = PERSON_AND_ORGANIZATION ( #288, #105 ) ;
#98 = AXIS2_PLACEMENT_3D ( 'NONE', #85, #240, #242 ) ;
#99 =( GEOMETRIC_REPRESENTATION_CONTEXT ( 3 ) GLOBAL_UNCERTAINTY_ASSIGNED_CONTEXT ( ( #145 ) ) GLOBAL_UNIT_ASSIGNED_CONTEXT ( ( #136, #249, #203 ) ) REPRESENTATION_CONTEXT ( 'NONE', 'WORKASPACE' ) );
#100 = PERSON_AND_ORGANIZATION_ROLE ( 'classification_officer' ) ;
#101 = EDGE_CURVE ( 'NONE', #276, #276, #70, .T. ) ;
#102 = ORIENTED_EDGE ( 'NONE', *, *, #167, .F. ) ;
#103 = CC_DESIGN_SECURITY_CLASSIFICATION ( #126, ( #88 ) ) ;
#104 = CARTESIAN_POINT ( 'NONE',  ( 2.119329172677781757E-13, -7.433606070824434221E-15, 60.69999999999999574 ) ) ;
#105 = ORGANIZATION ( 'UNSPECIFIED', 'UNSPECIFIED', '' ) ;
#106 = ADVANCED_FACE ( 'NONE', ( #79 ), #205, .T. ) ;
#107 = DIRECTION ( 'NONE',  ( -3.491481338843133355E-15, 1.224646799147353454E-16, -1.000000000000000000 ) ) ;
#108 = PLANE ( 'NONE',  #63 ) ;
#109 = CONICAL_SURFACE ( 'NONE', #299, 1.224999999999998535, 0.5235987755982922653 ) ;
#110 = LOCAL_TIME ( 10, 57, 9.000000000000000000, #9 ) ;
#111 = FACE_BOUND ( 'NONE', #23, .T. ) ;
#112 = PERSON_AND_ORGANIZATION ( #288, #105 ) ;
#113 = CIRCLE ( 'NONE', #270, 1.443499999999998673 ) ;
#114 = CC_DESIGN_APPROVAL ( #215, ( #126 ) ) ;
#115 = VERTEX_POINT ( 'NONE', #24 ) ;
#116 = EDGE_LOOP ( 'NONE', ( #188 ) ) ;
#117 = EDGE_LOOP ( 'NONE', ( #250 ) ) ;
#118 = EDGE_LOOP ( 'NONE', ( #210 ) ) ;
#119 = LOCAL_TIME ( 10, 57, 9.000000000000000000, #262 ) ;
#120 = ORIENTED_EDGE ( 'NONE', *, *, #265, .F. ) ;
#121 = APPROVAL_ROLE ( '' ) ;
#122 = EDGE_CURVE ( 'NONE', #252, #252, #87, .T. ) ;
#123 = ORIENTED_EDGE ( 'NONE', *, *, #5, .T. ) ;
#124 = CARTESIAN_POINT ( 'NONE',  ( 0.0000000000000000000, 0.0000000000000000000, 0.0000000000000000000 ) ) ;
#125 = AXIS2_PLACEMENT_3D ( 'NONE', #6, #232, #186 ) ;
#126 = SECURITY_CLASSIFICATION ( '', '', #168 ) ;
#127 = DIRECTION ( 'NONE',  ( -3.491481338843133355E-15, 1.224646799147353454E-16, -1.000000000000000000 ) ) ;
#128 = ADVANCED_FACE ( 'NONE', ( #218 ), #196, .F. ) ;
#129 = DIRECTION ( 'NONE',  ( -3.491481338843133355E-15, 1.224646799147353454E-16, -1.000000000000000000 ) ) ;
#130 = CYLINDRICAL_SURFACE ( 'NONE', #7, 1.499999999999998668 ) ;
#131 = CARTESIAN_POINT ( 'NONE',  ( 9.334328656934240837E-14, -3.274041761223206859E-15, 26.73457982744675121 ) ) ;
#132 = TOROIDAL_SURFACE ( 'NONE', #37, 3.225000000000000089, 2.000000000000000888 ) ;
#133 = APPROVAL ( #287, 'UNSPECIFIED' ) ;
#134 = APPROVAL_ROLE ( '' ) ;
#135 = CARTESIAN_POINT ( 'NONE',  ( 9.334328656934240837E-14, 1.499999999999992673, 26.73457982744675121 ) ) ;
#136 =( LENGTH_UNIT ( ) NAMED_UNIT ( * ) SI_UNIT ( .MILLI., .METRE. ) );
#137 = ADVANCED_FACE ( 'NONE', ( #81, #273 ), #109, .T. ) ;
#138 = AXIS2_PLACEMENT_3D ( 'NONE', #71, #91, #247 ) ;
#139 = VERTEX_POINT ( 'NONE', #135 ) ;
#140 = CARTESIAN_POINT ( 'NONE',  ( -5.554999583077744543E-31, 1.948431567712493440E-32, -1.591015114781720864E-16 ) ) ;
#141 = EDGE_LOOP ( 'NONE', ( #281 ) ) ;
#142 = CALENDAR_DATE ( 2021, 30, 11 ) ;
#143 = CARTESIAN_POINT ( 'NONE',  ( 2.129803616694311221E-13, 8.998558695971049855E-33, 61.00000000000000000 ) ) ;
#144 = AXIS2_PLACEMENT_3D ( 'NONE', #18, #200, #297 ) ;
#145 = UNCERTAINTY_MEASURE_WITH_UNIT (LENGTH_MEASURE( 1.000000000000000082E-05 ), #136, 'distance_accuracy_value', 'NONE');
#146 = AXIS2_PLACEMENT_3D ( 'NONE', #140, #73, #94 ) ;
#147 = PERSON_AND_ORGANIZATION_ROLE ( 'design_supplier' ) ;
#148 = CARTESIAN_POINT ( 'NONE',  ( 3.491481338843133355E-14, -1.224646799147353454E-15, 10.00000000000000000 ) ) ;
#149 = ORIENTED_EDGE ( 'NONE', *, *, #35, .T. ) ;
#150 = DIRECTION ( 'NONE',  ( 3.491481338843133355E-15, -1.224646799147353454E-16, 1.000000000000000000 ) ) ;
#151 = FACE_OUTER_BOUND ( 'NONE', #77, .T. ) ;
#152 = DIRECTION ( 'NONE',  ( 4.275831445896960358E-31, 1.000000000000000000, 1.224646799147353454E-16 ) ) ;
#153 = DIRECTION ( 'NONE',  ( 4.275831445896958607E-31, 1.000000000000000000, 1.224646799147353454E-16 ) ) ;
#154 = ADVANCED_FACE ( 'NONE', ( #293, #33 ), #235, .T. ) ;
#155 = CONICAL_SURFACE ( 'NONE', #261, 1.499999999999996003, 0.1745329251994270359 ) ;
#156 = PRODUCT ( '326996', '326996', '', ( #161 ) ) ;
#157 = VERTEX_POINT ( 'NONE', #19 ) ;
#158 = DIRECTION ( 'NONE',  ( 4.275831445896959482E-31, 1.000000000000000000, 1.224646799147353454E-16 ) ) ;
#159 = CARTESIAN_POINT ( 'NONE',  ( 2.129803616694311221E-13, 1.199999999999993960, 61.00000000000000000 ) ) ;
#160 = EDGE_LOOP ( 'NONE', ( #214 ) ) ;
#161 = MECHANICAL_CONTEXT ( 'NONE', #257, 'mechanical' ) ;
#162 = EDGE_LOOP ( 'NONE', ( #181 ) ) ;
#163 = DIRECTION ( 'NONE',  ( -4.275831445896959482E-31, -1.000000000000000000, -1.224646799147353454E-16 ) ) ;
#164 = PRODUCT_RELATED_PRODUCT_CATEGORY ( 'detail', '', ( #156 ) ) ;
#165 = COORDINATED_UNIVERSAL_TIME_OFFSET ( 1, 0, .AHEAD. ) ;
#166 = PERSON_AND_ORGANIZATION ( #288, #105 ) ;
#167 = EDGE_CURVE ( 'NONE', #115, #115, #245, .T. ) ;
#168 = SECURITY_CLASSIFICATION_LEVEL ( 'unclassified' ) ;
#169 = ORIENTED_EDGE ( 'NONE', *, *, #122, .F. ) ;
#170 = ORIENTED_EDGE ( 'NONE', *, *, #167, .T. ) ;
#171 = DIRECTION ( 'NONE',  ( 0.0000000000000000000, 1.000000000000000000, 0.0000000000000000000 ) ) ;
#172 = EDGE_CURVE ( 'NONE', #157, #157, #183, .T. ) ;
#173 = FACE_OUTER_BOUND ( 'NONE', #96, .T. ) ;
#174 = DIRECTION ( 'NONE',  ( 0.0000000000000000000, 1.000000000000000000, 0.0000000000000000000 ) ) ;
#175 = CARTESIAN_POINT ( 'NONE',  ( 2.129803616694311221E-13, -7.470345474798856659E-15, 61.00000000000000000 ) ) ;
#176 = EDGE_CURVE ( 'NONE', #302, #302, #113, .T. ) ;
#177 = CARTESIAN_POINT ( 'NONE',  ( 8.728703347107827472E-16, -3.061616997868381785E-17, 0.2499999999999998335 ) ) ;
#178 = APPROVAL_DATE_TIME ( #20, #238 ) ;
#179 = AXIS2_PLACEMENT_3D ( 'NONE', #208, #44, #256 ) ;
#180 = VERTEX_POINT ( 'NONE', #26 ) ;
#181 = ORIENTED_EDGE ( 'NONE', *, *, #101, .T. ) ;
#182 = CARTESIAN_POINT ( 'NONE',  ( 3.491481338843133355E-14, 1.443499999999998673, 10.00000000000000000 ) ) ;
#183 = CIRCLE ( 'NONE', #53, 1.224999999999999867 ) ;
#184 = DIRECTION ( 'NONE',  ( 3.491481338843133355E-15, -1.224646799147353454E-16, 1.000000000000000000 ) ) ;
#185 = CC_DESIGN_PERSON_AND_ORGANIZATION_ASSIGNMENT ( #112, #275, ( #298 ) ) ;
#186 = DIRECTION ( 'NONE',  ( 0.0000000000000000000, 1.000000000000000000, 0.0000000000000000000 ) ) ;
#187 = DATE_TIME_ROLE ( 'creation_date' ) ;
#188 = ORIENTED_EDGE ( 'NONE', *, *, #5, .F. ) ;
#189 = APPROVAL_ROLE ( '' ) ;
#190 = AXIS2_PLACEMENT_3D ( 'NONE', #1, #277, #279 ) ;
#191 = APPROVAL_STATUS ( 'not_yet_approved' ) ;
#192 = ORIENTED_EDGE ( 'NONE', *, *, #122, .T. ) ;
#193 = AXIS2_PLACEMENT_3D ( 'NONE', #57, #150, #14 ) ;
#194 = DIRECTION ( 'NONE',  ( 4.002625447289028277E-31, 1.000000000000000000, 1.126638904557158289E-16 ) ) ;
#195 = ADVANCED_FACE ( 'NONE', ( #34, #151 ), #56, .T. ) ;
#196 = PLANE ( 'NONE',  #98 ) ;
#197 = FACE_OUTER_BOUND ( 'NONE', #3, .T. ) ;
#198 = CLOSED_SHELL ( 'NONE', ( #128, #248, #290, #106 ) ) ;
#199 = DIRECTION ( 'NONE',  ( -3.491481338843133355E-15, 1.224646799147353454E-16, -1.000000000000000000 ) ) ;
#200 = DIRECTION ( 'NONE',  ( -3.491481338843133355E-15, 1.224646799147353454E-16, -1.000000000000000000 ) ) ;
#201 = VERTEX_POINT ( 'NONE', #22 ) ;
#202 = CC_DESIGN_DATE_AND_TIME_ASSIGNMENT ( #263, #187, ( #298 ) ) ;
#203 =( NAMED_UNIT ( * ) SI_UNIT ( $, .STERADIAN. ) SOLID_ANGLE_UNIT ( ) );
#204 = EDGE_LOOP ( 'NONE', ( #170 ) ) ;
#205 = PLANE ( 'NONE',  #16 ) ;
#206 = ADVANCED_FACE ( 'NONE', ( #271, #32 ), #132, .F. ) ;
#207 = AXIS2_PLACEMENT_3D ( 'NONE', #143, #264, #226 ) ;
#208 = CARTESIAN_POINT ( 'NONE',  ( 3.491481338843133355E-14, -1.224646799147353454E-15, 10.00000000000000000 ) ) ;
#209 = CALENDAR_DATE ( 2021, 30, 11 ) ;
#210 = ORIENTED_EDGE ( 'NONE', *, *, #35, .F. ) ;
#211 = PERSON_AND_ORGANIZATION ( #288, #105 ) ;
#212 = DESIGN_CONTEXT ( 'detailed design', #233, 'design' ) ;
#213 = DATE_AND_TIME ( #142, #42 ) ;
#214 = ORIENTED_EDGE ( 'NONE', *, *, #17, .T. ) ;
#215 = APPROVAL ( #191, 'UNSPECIFIED' ) ;
#216 = FACE_OUTER_BOUND ( 'NONE', #141, .T. ) ;
#217 = CLOSED_SHELL ( 'NONE', ( #259, #137, #195, #206, #227, #224, #154, #72 ) ) ;
#218 = FACE_OUTER_BOUND ( 'NONE', #160, .T. ) ;
#219 = DIRECTION ( 'NONE',  ( 0.0000000000000000000, 1.000000000000000000, 0.0000000000000000000 ) ) ;
#220 = DIRECTION ( 'NONE',  ( 0.0000000000000000000, 1.000000000000000000, 0.0000000000000000000 ) ) ;
#221 = DIRECTION ( 'NONE',  ( 0.0000000000000000000, -1.000000000000000000, 0.0000000000000000000 ) ) ;
#222 = COORDINATED_UNIVERSAL_TIME_OFFSET ( 1, 0, .AHEAD. ) ;
#223 = PERSON_AND_ORGANIZATION ( #288, #105 ) ;
#224 = ADVANCED_FACE ( 'NONE', ( #173, #291 ), #130, .T. ) ;
#225 = AXIS2_PLACEMENT_3D ( 'NONE', #148, #127, #174 ) ;
#226 = DIRECTION ( 'NONE',  ( 4.275831445896959482E-31, 1.000000000000000000, 1.224646799147353454E-16 ) ) ;
#227 = ADVANCED_FACE ( 'NONE', ( #83, #60 ), #155, .T. ) ;
#228 = CYLINDRICAL_SURFACE ( 'NONE', #21, 1.443499999999999339 ) ;
#229 = EDGE_LOOP ( 'NONE', ( #278 ) ) ;
#230 = AXIS2_PLACEMENT_3D ( 'NONE', #283, #75, #285 ) ;
#231 = CONICAL_SURFACE ( 'NONE', #193, 1.443499999999998673, 0.5235987755982927094 ) ;
#232 = DIRECTION ( 'NONE',  ( -3.491481338843133355E-15, 1.224646799147353454E-16, -1.000000000000000000 ) ) ;
#233 = APPLICATION_CONTEXT ( 'configuration controlled 3d designs of mechanical parts and assemblies' ) ;
#234 = DATE_AND_TIME ( #74, #50 ) ;
#235 = CONICAL_SURFACE ( 'NONE', #280, 1.200000000000001510, 0.7853981633974453924 ) ;
#236 = APPROVAL_DATE_TIME ( #213, #215 ) ;
#237 = MANIFOLD_SOLID_BREP ( 'Corps-Déplacer/Copier1[1]', #217 ) ;
#238 = APPROVAL ( #39, 'UNSPECIFIED' ) ;
#239 = DIRECTION ( 'NONE',  ( 3.491481338843133355E-15, -1.224646799147353454E-16, 1.000000000000000000 ) ) ;
#240 = DIRECTION ( 'NONE',  ( 3.491481338843133355E-15, -1.224646799147353454E-16, 1.000000000000000000 ) ) ;
#241 = CC_DESIGN_APPROVAL ( #133, ( #88 ) ) ;
#242 = DIRECTION ( 'NONE',  ( -4.275831445896959482E-31, -1.000000000000000000, -1.224646799147353454E-16 ) ) ;
#243 = DIRECTION ( 'NONE',  ( 0.0000000000000000000, 1.000000000000000000, 0.0000000000000000000 ) ) ;
#244 = CARTESIAN_POINT ( 'NONE',  ( 3.491481338843133355E-14, 1.082451623136194133E-32, 10.00000000000000000 ) ) ;
#245 = CIRCLE ( 'NONE', #2, 1.500000000000001332 ) ;
#246 = APPROVAL_PERSON_ORGANIZATION ( #97, #215, #189 ) ;
#247 = DIRECTION ( 'NONE',  ( 0.0000000000000000000, 1.000000000000000000, 0.0000000000000000000 ) ) ;
#248 = ADVANCED_FACE ( 'NONE', ( #111, #15 ), #231, .T. ) ;
#249 =( NAMED_UNIT ( * ) PLANE_ANGLE_UNIT ( ) SI_UNIT ( $, .RADIAN. ) );
#250 = ORIENTED_EDGE ( 'NONE', *, *, #265, .T. ) ;
#251 = CARTESIAN_POINT ( 'NONE',  ( 3.623617532978461367E-14, 1.224999999999997202, 10.37845310145380751 ) ) ;
#252 = VERTEX_POINT ( 'NONE', #43 ) ;
#253 = ORIENTED_EDGE ( 'NONE', *, *, #17, .F. ) ;
#254 = PRODUCT_DEFINITION_SHAPE ( 'NONE', 'NONE',  #298 ) ;
#255 = PERSON_AND_ORGANIZATION_ROLE ( 'design_owner' ) ;
#256 = DIRECTION ( 'NONE',  ( 0.0000000000000000000, 1.000000000000000000, 0.0000000000000000000 ) ) ;
#257 = APPLICATION_CONTEXT ( 'configuration controlled 3d designs of mechanical parts and assemblies' ) ;
#258 = CARTESIAN_POINT ( 'NONE',  ( 3.491481338843133355E-14, 1.082451623136194133E-32, 10.00000000000000000 ) ) ;
#259 = ADVANCED_FACE ( 'NONE', ( #197 ), #108, .F. ) ;
#260 = SHAPE_DEFINITION_REPRESENTATION ( #254, #13 ) ;
#261 = AXIS2_PLACEMENT_3D ( 'NONE', #131, #239, #221 ) ;
#262 = COORDINATED_UNIVERSAL_TIME_OFFSET ( 1, 0, .AHEAD. ) ;
#263 = DATE_AND_TIME ( #209, #110 ) ;
#264 = DIRECTION ( 'NONE',  ( -3.491481338843133355E-15, 1.224646799147353454E-16, -1.000000000000000000 ) ) ;
#265 = EDGE_CURVE ( 'NONE', #139, #139, #29, .T. ) ;
#266 = AXIS2_PLACEMENT_3D ( 'NONE', #82, #199, #153 ) ;
#267 = ORIENTED_EDGE ( 'NONE', *, *, #292, .T. ) ;
#268 = DIRECTION ( 'NONE',  ( -3.491481338843133355E-15, 1.224646799147353454E-16, -1.000000000000000000 ) ) ;
#269 = CARTESIAN_POINT ( 'NONE',  ( 8.728703347107833388E-14, -3.035766082959412415E-15, 25.00000000000000000 ) ) ;
#270 = AXIS2_PLACEMENT_3D ( 'NONE', #177, #61, #194 ) ;
#271 = FACE_OUTER_BOUND ( 'NONE', #69, .T. ) ;
#272 = DIRECTION ( 'NONE',  ( -3.491481338843133355E-15, 1.224646799147353454E-16, -1.000000000000000000 ) ) ;
#273 = FACE_BOUND ( 'NONE', #90, .T. ) ;
#274 = CIRCLE ( 'NONE', #138, 1.224999999999998535 ) ;
#275 = PERSON_AND_ORGANIZATION_ROLE ( 'creator' ) ;
#276 = VERTEX_POINT ( 'NONE', #159 ) ;
#277 = DIRECTION ( 'NONE',  ( 0.0000000000000000000, 0.0000000000000000000, 1.000000000000000000 ) ) ;
#278 = ORIENTED_EDGE ( 'NONE', *, *, #176, .T. ) ;
#279 = DIRECTION ( 'NONE',  ( 1.000000000000000000, 0.0000000000000000000, 0.0000000000000000000 ) ) ;
#280 = AXIS2_PLACEMENT_3D ( 'NONE', #175, #129, #219 ) ;
#281 = ORIENTED_EDGE ( 'NONE', *, *, #176, .F. ) ;
#282 = APPLICATION_PROTOCOL_DEFINITION ( 'international standard', 'config_control_design', 1994, #233 ) ;
#283 = CARTESIAN_POINT ( 'NONE',  ( 2.129803616694311221E-13, -7.470345474798856659E-15, 61.00000000000000000 ) ) ;
#284 = DATE_TIME_ROLE ( 'classification_date' ) ;
#285 = DIRECTION ( 'NONE',  ( 0.0000000000000000000, 1.000000000000000000, 0.0000000000000000000 ) ) ;
#286 = APPROVAL_PERSON_ORGANIZATION ( #211, #133, #121 ) ;
#287 = APPROVAL_STATUS ( 'not_yet_approved' ) ;
#288 = PERSON ( 'UNSPECIFIED', 'UNSPECIFIED', 'UNSPECIFIED', ('UNSPECIFIED'), ('UNSPECIFIED'), ('UNSPECIFIED') ) ;
#289 = COORDINATED_UNIVERSAL_TIME_OFFSET ( 1, 0, .AHEAD. ) ;
#290 = ADVANCED_FACE ( 'NONE', ( #216, #300 ), #228, .T. ) ;
#291 = FACE_OUTER_BOUND ( 'NONE', #204, .T. ) ;
#292 = EDGE_CURVE ( 'NONE', #67, #67, #274, .T. ) ;
#293 = FACE_OUTER_BOUND ( 'NONE', #46, .T. ) ;
#294 = DIRECTION ( 'NONE',  ( 3.491481338843133355E-15, -1.224646799147353454E-16, 1.000000000000000000 ) ) ;
#295 = CIRCLE ( 'NONE', #125, 1.255384493975580051 ) ;
#296 = DIRECTION ( 'NONE',  ( -3.491481338843133355E-15, 1.224646799147353454E-16, -1.000000000000000000 ) ) ;
#297 = DIRECTION ( 'NONE',  ( 0.0000000000000000000, 1.000000000000000000, 0.0000000000000000000 ) ) ;
#298 = PRODUCT_DEFINITION ( 'UNKNOWN', '', #88, #212 ) ;
#299 = AXIS2_PLACEMENT_3D ( 'NONE', #84, #296, #171 ) ;
#300 = FACE_OUTER_BOUND ( 'NONE', #66, .T. ) ;
#301 = EDGE_LOOP ( 'NONE', ( #92 ) ) ;
#302 = VERTEX_POINT ( 'NONE', #68 ) ;
#303 = ORIENTED_EDGE ( 'NONE', *, *, #172, .T. ) ;
ENDSEC;
END-ISO-10303-21;
