ISO-10303-21;
HEADER;
FILE_DESCRIPTION (( 'STEP AP203' ),
    '1' );
FILE_NAME ('326995.step',
    '2021-11-30T09:57:08',
    ( '' ),
    ( '' ),
    'SwSTEP 2.0',
    'SolidWorks 2019',
    '' );
FILE_SCHEMA (( 'CONFIG_CONTROL_DESIGN' ));
ENDSEC;

DATA;
#1 = AXIS2_PLACEMENT_3D ( 'NONE', #36, #42, #275 ) ;
#2 = APPLICATION_PROTOCOL_DEFINITION ( 'international standard', 'config_control_design', 1994, #138 ) ;
#3 = COORDINATED_UNIVERSAL_TIME_OFFSET ( 1, 0, .AHEAD. ) ;
#4 = EDGE_CURVE ( 'NONE', #223, #223, #114, .T. ) ;
#5 = CIRCLE ( 'NONE', #19, 1.200000000000001510 ) ;
#6 = FACE_OUTER_BOUND ( 'NONE', #162, .T. ) ;
#7 = APPROVAL_STATUS ( 'not_yet_approved' ) ;
#8 = ORIENTED_EDGE ( 'NONE', *, *, #270, .T. ) ;
#9 = PERSON_AND_ORGANIZATION ( #93, #96 ) ;
#10 = ORIENTED_EDGE ( 'NONE', *, *, #108, .F. ) ;
#11 = DIRECTION ( 'NONE',  ( 4.275831445896960358E-31, 1.000000000000000000, 1.224646799147353454E-16 ) ) ;
#12 = ADVANCED_FACE ( 'NONE', ( #101, #117 ), #61, .F. ) ;
#13 = FACE_OUTER_BOUND ( 'NONE', #229, .T. ) ;
#14 = PLANE ( 'NONE',  #299 ) ;
#15 = LOCAL_TIME ( 10, 57, 8.000000000000000000, #277 ) ;
#16 = DIRECTION ( 'NONE',  ( 4.016537944498931514E-31, 1.000000000000000000, 1.130554924385302870E-16 ) ) ;
#17 = CARTESIAN_POINT ( 'NONE',  ( 2.119329172677781757E-13, 1.499999999999994005, 60.69999999999999574 ) ) ;
#18 = CARTESIAN_POINT ( 'NONE',  ( 3.491481338843133355E-14, 1.438499999999998558, 10.00000000000000000 ) ) ;
#19 = AXIS2_PLACEMENT_3D ( 'NONE', #38, #131, #64 ) ;
#20 = CARTESIAN_POINT ( 'NONE',  ( 0.0000000000000000000, 0.0000000000000000000, 0.0000000000000000000 ) ) ;
#21 = EDGE_CURVE ( 'NONE', #178, #178, #135, .T. ) ;
#22 = PERSON_AND_ORGANIZATION ( #93, #96 ) ;
#23 =( NAMED_UNIT ( * ) SI_UNIT ( $, .STERADIAN. ) SOLID_ANGLE_UNIT ( ) );
#24 = LOCAL_TIME ( 10, 57, 8.000000000000000000, #218 ) ;
#25 = ORIENTED_EDGE ( 'NONE', *, *, #283, .T. ) ;
#26 = DESIGN_CONTEXT ( 'detailed design', #128, 'design' ) ;
#27 = CC_DESIGN_APPROVAL ( #296, ( #39 ) ) ;
#28 = DIRECTION ( 'NONE',  ( -3.491481338843133355E-15, 1.224646799147353454E-16, -1.000000000000000000 ) ) ;
#29 = VERTEX_POINT ( 'NONE', #253 ) ;
#30 = CC_DESIGN_DATE_AND_TIME_ASSIGNMENT ( #133, #204, ( #118 ) ) ;
#31 = EDGE_LOOP ( 'NONE', ( #196 ) ) ;
#32 = FACE_OUTER_BOUND ( 'NONE', #141, .T. ) ;
#33 = CC_DESIGN_SECURITY_CLASSIFICATION ( #233, ( #39 ) ) ;
#34 = DIRECTION ( 'NONE',  ( 0.0000000000000000000, 1.000000000000000000, 0.0000000000000000000 ) ) ;
#35 = DIRECTION ( 'NONE',  ( 3.491481338843133355E-15, -1.224646799147353454E-16, 1.000000000000000000 ) ) ;
#36 = CARTESIAN_POINT ( 'NONE',  ( 8.728703347107827472E-16, -3.061616997868381785E-17, 0.2499999999999998335 ) ) ;
#37 = CC_DESIGN_DATE_AND_TIME_ASSIGNMENT ( #121, #57, ( #233 ) ) ;
#38 = CARTESIAN_POINT ( 'NONE',  ( 2.129803616694311221E-13, -7.470345474798856659E-15, 61.00000000000000000 ) ) ;
#39 = PRODUCT_DEFINITION_FORMATION_WITH_SPECIFIED_SOURCE ( 'ANY', '', #302, .NOT_KNOWN. ) ;
#40 = FACE_OUTER_BOUND ( 'NONE', #256, .T. ) ;
#41 = FACE_OUTER_BOUND ( 'NONE', #54, .T. ) ;
#42 = DIRECTION ( 'NONE',  ( 3.491481338843133355E-15, -1.224646799147353454E-16, 1.000000000000000000 ) ) ;
#43 = CIRCLE ( 'NONE', #116, 1.438499999999998558 ) ;
#44 = CARTESIAN_POINT ( 'NONE',  ( -3.785471652766321837E-31, 1.294162432702594456, -1.084202172485504187E-16 ) ) ;
#45 = COORDINATED_UNIVERSAL_TIME_OFFSET ( 1, 0, .AHEAD. ) ;
#46 = ORIENTED_EDGE ( 'NONE', *, *, #225, .F. ) ;
#47 = EDGE_CURVE ( 'NONE', #202, #202, #182, .T. ) ;
#48 = EDGE_LOOP ( 'NONE', ( #160 ) ) ;
#49 = EDGE_LOOP ( 'NONE', ( #94 ) ) ;
#50 = DIRECTION ( 'NONE',  ( 4.275831445896959482E-31, 1.000000000000000000, 1.224646799147353454E-16 ) ) ;
#51 = AXIS2_PLACEMENT_3D ( 'NONE', #193, #102, #123 ) ;
#52 = CC_DESIGN_PERSON_AND_ORGANIZATION_ASSIGNMENT ( #91, #67, ( #302 ) ) ;
#53 = AXIS2_PLACEMENT_3D ( 'NONE', #272, #252, #179 ) ;
#54 = EDGE_LOOP ( 'NONE', ( #89 ) ) ;
#55 = PERSON_AND_ORGANIZATION ( #93, #96 ) ;
#56 = FACE_OUTER_BOUND ( 'NONE', #48, .T. ) ;
#57 = DATE_TIME_ROLE ( 'classification_date' ) ;
#58 = CALENDAR_DATE ( 2021, 30, 11 ) ;
#59 = CARTESIAN_POINT ( 'NONE',  ( -4.659546039307291052E-31, 1.634348744481082255E-32, -1.334547026635744211E-16 ) ) ;
#60 = CARTESIAN_POINT ( 'NONE',  ( 8.849961221477469775E-14, 1.255384493975576943, 25.34729635533384595 ) ) ;
#61 = TOROIDAL_SURFACE ( 'NONE', #232, 3.225000000000000089, 2.000000000000000888 ) ;
#62 = CARTESIAN_POINT ( 'NONE',  ( -9.319092078614582103E-31, 3.268697488962164510E-32, -2.669094053271488423E-16 ) ) ;
#63 = LOCAL_TIME ( 10, 57, 8.000000000000000000, #45 ) ;
#64 = DIRECTION ( 'NONE',  ( 0.0000000000000000000, 1.000000000000000000, 0.0000000000000000000 ) ) ;
#65 = FACE_OUTER_BOUND ( 'NONE', #281, .T. ) ;
#66 = AXIS2_PLACEMENT_3D ( 'NONE', #197, #300, #251 ) ;
#67 = PERSON_AND_ORGANIZATION_ROLE ( 'design_owner' ) ;
#68 = EDGE_LOOP ( 'NONE', ( #8 ) ) ;
#69 = FACE_BOUND ( 'NONE', #144, .T. ) ;
#70 = ADVANCED_FACE ( 'NONE', ( #217 ), #194, .F. ) ;
#71 = ORIENTED_EDGE ( 'NONE', *, *, #47, .T. ) ;
#72 = CLOSED_SHELL ( 'NONE', ( #104, #199, #260, #291 ) ) ;
#73 = CIRCLE ( 'NONE', #206, 1.294162432702594456 ) ;
#74 = CARTESIAN_POINT ( 'NONE',  ( 9.334328656934240837E-14, -3.274041761223206859E-15, 26.73457982744675121 ) ) ;
#75 = ADVANCED_FACE ( 'NONE', ( #13 ), #168, .F. ) ;
#76 = EDGE_LOOP ( 'NONE', ( #261 ) ) ;
#77 = ORIENTED_EDGE ( 'NONE', *, *, #4, .F. ) ;
#78 = AXIS2_PLACEMENT_3D ( 'NONE', #106, #246, #295 ) ;
#79 = CARTESIAN_POINT ( 'NONE',  ( 8.728703347107833388E-16, 1.438499999999998558, 0.2500000000000000000 ) ) ;
#80 = SHAPE_DEFINITION_REPRESENTATION ( #151, #214 ) ;
#81 = DIRECTION ( 'NONE',  ( 4.275831445896959482E-31, 1.000000000000000000, 1.224646799147353454E-16 ) ) ;
#82 = CARTESIAN_POINT ( 'NONE',  ( 0.0000000000000000000, 0.0000000000000000000, 0.0000000000000000000 ) ) ;
#83 = CONICAL_SURFACE ( 'NONE', #259, 1.499999999999996003, 0.1745329251994270359 ) ;
#84 = DIRECTION ( 'NONE',  ( -3.491481338843133355E-15, 1.224646799147353454E-16, -1.000000000000000000 ) ) ;
#85 = ADVANCED_FACE ( 'NONE', ( #6, #69 ), #242, .T. ) ;
#86 = FACE_OUTER_BOUND ( 'NONE', #209, .T. ) ;
#87 = DATE_AND_TIME ( #186, #237 ) ;
#88 = PERSON_AND_ORGANIZATION_ROLE ( 'classification_officer' ) ;
#89 = ORIENTED_EDGE ( 'NONE', *, *, #124, .T. ) ;
#90 = ADVANCED_FACE ( 'NONE', ( #56, #122 ), #282, .T. ) ;
#91 = PERSON_AND_ORGANIZATION ( #93, #96 ) ;
#92 = APPROVAL_ROLE ( '' ) ;
#93 = PERSON ( 'UNSPECIFIED', 'UNSPECIFIED', 'UNSPECIFIED', ('UNSPECIFIED'), ('UNSPECIFIED'), ('UNSPECIFIED') ) ;
#94 = ORIENTED_EDGE ( 'NONE', *, *, #210, .T. ) ;
#95 = AXIS2_PLACEMENT_3D ( 'NONE', #169, #265, #11 ) ;
#96 = ORGANIZATION ( 'UNSPECIFIED', 'UNSPECIFIED', '' ) ;
#97 = DIRECTION ( 'NONE',  ( 0.0000000000000000000, 1.000000000000000000, 0.0000000000000000000 ) ) ;
#98 = CARTESIAN_POINT ( 'NONE',  ( 2.129803616694311221E-13, 1.199999999999993960, 61.00000000000000000 ) ) ;
#99 = CLOSED_SHELL ( 'NONE', ( #70, #85, #195, #12, #181, #100, #90, #75 ) ) ;
#100 = ADVANCED_FACE ( 'NONE', ( #241, #32 ), #120, .T. ) ;
#101 = FACE_OUTER_BOUND ( 'NONE', #235, .T. ) ;
#102 = DIRECTION ( 'NONE',  ( -3.491481338843133355E-15, 1.224646799147353454E-16, -1.000000000000000000 ) ) ;
#103 = DIRECTION ( 'NONE',  ( 3.491481338843133355E-15, -1.224646799147353454E-16, 1.000000000000000000 ) ) ;
#104 = ADVANCED_FACE ( 'NONE', ( #147 ), #243, .F. ) ;
#105 = CARTESIAN_POINT ( 'NONE',  ( 3.491481338843133355E-14, 1.078702223679539598E-32, 10.00000000000000000 ) ) ;
#106 = CARTESIAN_POINT ( 'NONE',  ( 3.620593821442183232E-14, -1.269933361840907991E-15, 10.36979284741596352 ) ) ;
#107 = DIRECTION ( 'NONE',  ( -4.275831445896959482E-31, -1.000000000000000000, -1.224646799147353454E-16 ) ) ;
#108 = EDGE_CURVE ( 'NONE', #127, #127, #109, .T. ) ;
#109 = CIRCLE ( 'NONE', #172, 1.438499999999999890 ) ;
#110 = APPROVAL_PERSON_ORGANIZATION ( #9, #240, #149 ) ;
#111 = FACE_OUTER_BOUND ( 'NONE', #119, .T. ) ;
#112 = APPROVAL_STATUS ( 'not_yet_approved' ) ;
#113 = ORIENTED_EDGE ( 'NONE', *, *, #225, .T. ) ;
#114 = CIRCLE ( 'NONE', #258, 1.438499999999999890 ) ;
#115 = EDGE_LOOP ( 'NONE', ( #71 ) ) ;
#116 = AXIS2_PLACEMENT_3D ( 'NONE', #130, #227, #16 ) ;
#117 = FACE_OUTER_BOUND ( 'NONE', #76, .T. ) ;
#118 = PRODUCT_DEFINITION ( 'UNKNOWN', '', #39, #26 ) ;
#119 = EDGE_LOOP ( 'NONE', ( #137 ) ) ;
#120 = CYLINDRICAL_SURFACE ( 'NONE', #95, 1.499999999999998668 ) ;
#121 = DATE_AND_TIME ( #58, #15 ) ;
#122 = FACE_BOUND ( 'NONE', #68, .T. ) ;
#123 = DIRECTION ( 'NONE',  ( 0.0000000000000000000, 1.000000000000000000, 0.0000000000000000000 ) ) ;
#124 = EDGE_CURVE ( 'NONE', #174, #174, #43, .T. ) ;
#125 = DIRECTION ( 'NONE',  ( -3.491481338843133355E-15, 1.224646799147353454E-16, -1.000000000000000000 ) ) ;
#126 = AXIS2_PLACEMENT_3D ( 'NONE', #211, #28, #97 ) ;
#127 = VERTEX_POINT ( 'NONE', #297 ) ;
#128 = APPLICATION_CONTEXT ( 'configuration controlled 3d designs of mechanical parts and assemblies' ) ;
#129 = DIRECTION ( 'NONE',  ( -4.275831445896959482E-31, -1.000000000000000000, -1.224646799147353454E-16 ) ) ;
#130 = CARTESIAN_POINT ( 'NONE',  ( 8.728703347107827472E-16, -3.061616997868381785E-17, 0.2499999999999998335 ) ) ;
#131 = DIRECTION ( 'NONE',  ( -3.491481338843133355E-15, 1.224646799147353454E-16, -1.000000000000000000 ) ) ;
#132 = MANIFOLD_SOLID_BREP ( 'Corps-Déplacer/Copier1[1]', #99 ) ;
#133 = DATE_AND_TIME ( #234, #188 ) ;
#134 = DIRECTION ( 'NONE',  ( 0.0000000000000000000, 0.0000000000000000000, 1.000000000000000000 ) ) ;
#135 = CIRCLE ( 'NONE', #51, 1.500000000000001332 ) ;
#136 = ORIENTED_EDGE ( 'NONE', *, *, #283, .F. ) ;
#137 = ORIENTED_EDGE ( 'NONE', *, *, #4, .T. ) ;
#138 = APPLICATION_CONTEXT ( 'configuration controlled 3d designs of mechanical parts and assemblies' ) ;
#139 = MANIFOLD_SOLID_BREP ( 'Corps-Déplacer/Copier1[2]', #72 ) ;
#140 = UNCERTAINTY_MEASURE_WITH_UNIT (LENGTH_MEASURE( 1.000000000000000082E-05 ), #212, 'distance_accuracy_value', 'NONE');
#141 = EDGE_LOOP ( 'NONE', ( #267 ) ) ;
#142 = APPROVAL_ROLE ( '' ) ;
#143 = EDGE_CURVE ( 'NONE', #155, #155, #290, .T. ) ;
#144 = EDGE_LOOP ( 'NONE', ( #113 ) ) ;
#145 = PRODUCT_RELATED_PRODUCT_CATEGORY ( 'detail', '', ( #302 ) ) ;
#146 = CARTESIAN_POINT ( 'NONE',  ( 8.728703347107833388E-14, -3.035766082959412415E-15, 25.00000000000000000 ) ) ;
#147 = FACE_OUTER_BOUND ( 'NONE', #49, .T. ) ;
#148 = DIRECTION ( 'NONE',  ( 0.0000000000000000000, 1.000000000000000000, 0.0000000000000000000 ) ) ;
#149 = APPROVAL_ROLE ( '' ) ;
#150 = CARTESIAN_POINT ( 'NONE',  ( 3.491481338843133355E-14, -1.224646799147353454E-15, 10.00000000000000000 ) ) ;
#151 = PRODUCT_DEFINITION_SHAPE ( 'NONE', 'NONE',  #118 ) ;
#152 = VERTEX_POINT ( 'NONE', #44 ) ;
#153 = APPROVAL_PERSON_ORGANIZATION ( #263, #296, #92 ) ;
#154 = CARTESIAN_POINT ( 'NONE',  ( 8.849961221477469775E-14, -3.104148534859897544E-15, 25.34729635533384595 ) ) ;
#155 = VERTEX_POINT ( 'NONE', #60 ) ;
#156 = DIRECTION ( 'NONE',  ( -3.491481338843133355E-15, 1.224646799147353454E-16, -1.000000000000000000 ) ) ;
#157 = CIRCLE ( 'NONE', #53, 1.224999999999999867 ) ;
#158 = SECURITY_CLASSIFICATION_LEVEL ( 'unclassified' ) ;
#159 = APPLICATION_PROTOCOL_DEFINITION ( 'international standard', 'config_control_design', 1994, #128 ) ;
#160 = ORIENTED_EDGE ( 'NONE', *, *, #21, .F. ) ;
#161 = APPROVAL_PERSON_ORGANIZATION ( #55, #247, #142 ) ;
#162 = EDGE_LOOP ( 'NONE', ( #10 ) ) ;
#163 = CARTESIAN_POINT ( 'NONE',  ( 3.620593821442183232E-14, -1.269933361840907991E-15, 10.36979284741596352 ) ) ;
#164 = PERSON_AND_ORGANIZATION_ROLE ( 'design_supplier' ) ;
#165 = CARTESIAN_POINT ( 'NONE',  ( 3.491481338843133355E-14, 1.078702223679539598E-32, 10.00000000000000000 ) ) ;
#166 = CC_DESIGN_APPROVAL ( #247, ( #118 ) ) ;
#167 = PERSON_AND_ORGANIZATION ( #93, #96 ) ;
#168 = PLANE ( 'NONE',  #298 ) ;
#169 = CARTESIAN_POINT ( 'NONE',  ( 0.0000000000000000000, 0.0000000000000000000, 0.0000000000000000000 ) ) ;
#170 = DATE_AND_TIME ( #200, #24 ) ;
#171 = ORIENTED_EDGE ( 'NONE', *, *, #210, .F. ) ;
#172 = AXIS2_PLACEMENT_3D ( 'NONE', #150, #84, #250 ) ;
#173 = CYLINDRICAL_SURFACE ( 'NONE', #66, 1.224999999999999201 ) ;
#174 = VERTEX_POINT ( 'NONE', #79 ) ;
#175 = DIRECTION ( 'NONE',  ( 4.275831445896959482E-31, 1.000000000000000000, 1.224646799147353454E-16 ) ) ;
#176 = AXIS2_PLACEMENT_3D ( 'NONE', #165, #35, #239 ) ;
#177 = AXIS2_PLACEMENT_3D ( 'NONE', #154, #248, #220 ) ;
#178 = VERTEX_POINT ( 'NONE', #17 ) ;
#179 = DIRECTION ( 'NONE',  ( 0.0000000000000000000, 1.000000000000000000, 0.0000000000000000000 ) ) ;
#180 = PERSON_AND_ORGANIZATION_ROLE ( 'creator' ) ;
#181 = ADVANCED_FACE ( 'NONE', ( #198, #203 ), #83, .T. ) ;
#182 = CIRCLE ( 'NONE', #208, 1.499999999999996003 ) ;
#183 = MECHANICAL_CONTEXT ( 'NONE', #138, 'mechanical' ) ;
#184 = EDGE_LOOP ( 'NONE', ( #264 ) ) ;
#185 = CALENDAR_DATE ( 2021, 30, 11 ) ;
#186 = CALENDAR_DATE ( 2021, 30, 11 ) ;
#187 = EDGE_LOOP ( 'NONE', ( #46 ) ) ;
#188 = LOCAL_TIME ( 10, 57, 8.000000000000000000, #3 ) ;
#189 = CARTESIAN_POINT ( 'NONE',  ( 2.129803616694311221E-13, 8.998558695971049855E-33, 61.00000000000000000 ) ) ;
#190 = CARTESIAN_POINT ( 'NONE',  ( 3.491481338843133355E-14, -1.224646799147353454E-15, 10.00000000000000000 ) ) ;
#191 = CC_DESIGN_PERSON_AND_ORGANIZATION_ASSIGNMENT ( #167, #279, ( #118 ) ) ;
#192 = DATE_AND_TIME ( #185, #63 ) ;
#193 = CARTESIAN_POINT ( 'NONE',  ( 2.119329172677781757E-13, -7.433606070824434221E-15, 60.69999999999999574 ) ) ;
#194 = PLANE ( 'NONE',  #176 ) ;
#195 = ADVANCED_FACE ( 'NONE', ( #271, #65 ), #173, .T. ) ;
#196 = ORIENTED_EDGE ( 'NONE', *, *, #143, .F. ) ;
#197 = CARTESIAN_POINT ( 'NONE',  ( 0.0000000000000000000, 0.0000000000000000000, 0.0000000000000000000 ) ) ;
#198 = FACE_BOUND ( 'NONE', #31, .T. ) ;
#199 = ADVANCED_FACE ( 'NONE', ( #294, #41 ), #216, .T. ) ;
#200 = CALENDAR_DATE ( 2021, 30, 11 ) ;
#201 = CARTESIAN_POINT ( 'NONE',  ( 9.334328656934240837E-14, -3.274041761223206859E-15, 26.73457982744675121 ) ) ;
#202 = VERTEX_POINT ( 'NONE', #269 ) ;
#203 = FACE_OUTER_BOUND ( 'NONE', #115, .T. ) ;
#204 = DATE_TIME_ROLE ( 'creation_date' ) ;
#205 = PERSON_AND_ORGANIZATION ( #93, #96 ) ;
#206 = AXIS2_PLACEMENT_3D ( 'NONE', #62, #156, #81 ) ;
#207 = DIRECTION ( 'NONE',  ( 1.000000000000000000, 0.0000000000000000000, 0.0000000000000000000 ) ) ;
#208 = AXIS2_PLACEMENT_3D ( 'NONE', #74, #287, #219 ) ;
#209 = EDGE_LOOP ( 'NONE', ( #231 ) ) ;
#210 = EDGE_CURVE ( 'NONE', #152, #152, #73, .T. ) ;
#211 = CARTESIAN_POINT ( 'NONE',  ( 2.129803616694311221E-13, -7.470345474798856659E-15, 61.00000000000000000 ) ) ;
#212 =( LENGTH_UNIT ( ) NAMED_UNIT ( * ) SI_UNIT ( .MILLI., .METRE. ) );
#213 = EDGE_LOOP ( 'NONE', ( #278 ) ) ;
#214 = ADVANCED_BREP_SHAPE_REPRESENTATION ( '326995', ( #132, #139, #249 ), #226 ) ;
#215 = DIRECTION ( 'NONE',  ( -3.491481338843133355E-15, 1.224646799147353454E-16, -1.000000000000000000 ) ) ;
#216 = CONICAL_SURFACE ( 'NONE', #1, 1.438499999999998558, 0.5235987755982918213 ) ;
#217 = FACE_OUTER_BOUND ( 'NONE', #184, .T. ) ;
#218 = COORDINATED_UNIVERSAL_TIME_OFFSET ( 1, 0, .AHEAD. ) ;
#219 = DIRECTION ( 'NONE',  ( 0.0000000000000000000, 1.000000000000000000, 0.0000000000000000000 ) ) ;
#220 = DIRECTION ( 'NONE',  ( 0.0000000000000000000, 1.000000000000000000, 0.0000000000000000000 ) ) ;
#221 = CC_DESIGN_PERSON_AND_ORGANIZATION_ASSIGNMENT ( #280, #180, ( #39 ) ) ;
#222 = DIRECTION ( 'NONE',  ( 3.491481338843133355E-15, -1.224646799147353454E-16, 1.000000000000000000 ) ) ;
#223 = VERTEX_POINT ( 'NONE', #18 ) ;
#224 = CYLINDRICAL_SURFACE ( 'NONE', #273, 1.438499999999999224 ) ;
#225 = EDGE_CURVE ( 'NONE', #29, #29, #293, .T. ) ;
#226 =( GEOMETRIC_REPRESENTATION_CONTEXT ( 3 ) GLOBAL_UNCERTAINTY_ASSIGNED_CONTEXT ( ( #140 ) ) GLOBAL_UNIT_ASSIGNED_CONTEXT ( ( #212, #257, #23 ) ) REPRESENTATION_CONTEXT ( 'NONE', 'WORKASPACE' ) );
#227 = DIRECTION ( 'NONE',  ( -3.491481338843133355E-15, 1.224646799147353454E-16, -1.000000000000000000 ) ) ;
#228 = APPROVAL_DATE_TIME ( #87, #296 ) ;
#229 = EDGE_LOOP ( 'NONE', ( #236 ) ) ;
#230 = VERTEX_POINT ( 'NONE', #98 ) ;
#231 = ORIENTED_EDGE ( 'NONE', *, *, #124, .F. ) ;
#232 = AXIS2_PLACEMENT_3D ( 'NONE', #146, #244, #284 ) ;
#233 = SECURITY_CLASSIFICATION ( '', '', #158 ) ;
#234 = CALENDAR_DATE ( 2021, 30, 11 ) ;
#235 = EDGE_LOOP ( 'NONE', ( #136 ) ) ;
#236 = ORIENTED_EDGE ( 'NONE', *, *, #270, .F. ) ;
#237 = LOCAL_TIME ( 10, 57, 8.000000000000000000, #301 ) ;
#238 = DIRECTION ( 'NONE',  ( -3.491481338843133355E-15, 1.224646799147353454E-16, -1.000000000000000000 ) ) ;
#239 = DIRECTION ( 'NONE',  ( -4.275831445896959482E-31, -1.000000000000000000, -1.224646799147353454E-16 ) ) ;
#240 = APPROVAL ( #268, 'UNSPECIFIED' ) ;
#241 = FACE_OUTER_BOUND ( 'NONE', #213, .T. ) ;
#242 = CONICAL_SURFACE ( 'NONE', #276, 1.224999999999998535, 0.5235987755982930425 ) ;
#243 = PLANE ( 'NONE',  #266 ) ;
#244 = DIRECTION ( 'NONE',  ( -3.491481338843133355E-15, 1.224646799147353454E-16, -1.000000000000000000 ) ) ;
#245 = APPROVAL_DATE_TIME ( #170, #240 ) ;
#246 = DIRECTION ( 'NONE',  ( -3.491481338843133355E-15, 1.224646799147353454E-16, -1.000000000000000000 ) ) ;
#247 = APPROVAL ( #7, 'UNSPECIFIED' ) ;
#248 = DIRECTION ( 'NONE',  ( -3.491481338843133355E-15, 1.224646799147353454E-16, -1.000000000000000000 ) ) ;
#249 = AXIS2_PLACEMENT_3D ( 'NONE', #20, #134, #207 ) ;
#250 = DIRECTION ( 'NONE',  ( 0.0000000000000000000, 1.000000000000000000, 0.0000000000000000000 ) ) ;
#251 = DIRECTION ( 'NONE',  ( 4.275831445896958607E-31, 1.000000000000000000, 1.224646799147353454E-16 ) ) ;
#252 = DIRECTION ( 'NONE',  ( -3.491481338843133355E-15, 1.224646799147353454E-16, -1.000000000000000000 ) ) ;
#253 = CARTESIAN_POINT ( 'NONE',  ( 3.620593821442183232E-14, 1.224999999999997202, 10.36979284741596352 ) ) ;
#254 = CC_DESIGN_PERSON_AND_ORGANIZATION_ASSIGNMENT ( #22, #164, ( #39 ) ) ;
#255 = APPROVAL_DATE_TIME ( #192, #247 ) ;
#256 = EDGE_LOOP ( 'NONE', ( #77 ) ) ;
#257 =( NAMED_UNIT ( * ) PLANE_ANGLE_UNIT ( ) SI_UNIT ( $, .RADIAN. ) );
#258 = AXIS2_PLACEMENT_3D ( 'NONE', #190, #215, #148 ) ;
#259 = AXIS2_PLACEMENT_3D ( 'NONE', #201, #292, #274 ) ;
#260 = ADVANCED_FACE ( 'NONE', ( #86, #111 ), #224, .T. ) ;
#261 = ORIENTED_EDGE ( 'NONE', *, *, #143, .T. ) ;
#262 = CC_DESIGN_APPROVAL ( #240, ( #233 ) ) ;
#263 = PERSON_AND_ORGANIZATION ( #93, #96 ) ;
#264 = ORIENTED_EDGE ( 'NONE', *, *, #108, .T. ) ;
#265 = DIRECTION ( 'NONE',  ( -3.491481338843133355E-15, 1.224646799147353454E-16, -1.000000000000000000 ) ) ;
#266 = AXIS2_PLACEMENT_3D ( 'NONE', #59, #222, #107 ) ;
#267 = ORIENTED_EDGE ( 'NONE', *, *, #21, .T. ) ;
#268 = APPROVAL_STATUS ( 'not_yet_approved' ) ;
#269 = CARTESIAN_POINT ( 'NONE',  ( 9.334328656934240837E-14, 1.499999999999992673, 26.73457982744675121 ) ) ;
#270 = EDGE_CURVE ( 'NONE', #230, #230, #5, .T. ) ;
#271 = FACE_OUTER_BOUND ( 'NONE', #187, .T. ) ;
#272 = CARTESIAN_POINT ( 'NONE',  ( 8.728703347107833388E-14, -3.061616997868383831E-15, 25.00000000000000000 ) ) ;
#273 = AXIS2_PLACEMENT_3D ( 'NONE', #82, #125, #175 ) ;
#274 = DIRECTION ( 'NONE',  ( 0.0000000000000000000, -1.000000000000000000, 0.0000000000000000000 ) ) ;
#275 = DIRECTION ( 'NONE',  ( -4.016537944498931514E-31, -1.000000000000000000, -1.130554924385302870E-16 ) ) ;
#276 = AXIS2_PLACEMENT_3D ( 'NONE', #163, #238, #34 ) ;
#277 = COORDINATED_UNIVERSAL_TIME_OFFSET ( 1, 0, .AHEAD. ) ;
#278 = ORIENTED_EDGE ( 'NONE', *, *, #47, .F. ) ;
#279 = PERSON_AND_ORGANIZATION_ROLE ( 'creator' ) ;
#280 = PERSON_AND_ORGANIZATION ( #93, #96 ) ;
#281 = EDGE_LOOP ( 'NONE', ( #25 ) ) ;
#282 = CONICAL_SURFACE ( 'NONE', #126, 1.200000000000001510, 0.7853981633974453924 ) ;
#283 = EDGE_CURVE ( 'NONE', #303, #303, #157, .T. ) ;
#284 = DIRECTION ( 'NONE',  ( 4.275831445896959482E-31, 1.000000000000000000, 1.224646799147353454E-16 ) ) ;
#285 = CC_DESIGN_PERSON_AND_ORGANIZATION_ASSIGNMENT ( #205, #88, ( #233 ) ) ;
#286 = CARTESIAN_POINT ( 'NONE',  ( 8.728703347107833388E-14, 1.224999999999996980, 25.00000000000000000 ) ) ;
#287 = DIRECTION ( 'NONE',  ( -3.491481338843133355E-15, 1.224646799147353454E-16, -1.000000000000000000 ) ) ;
#288 = DIRECTION ( 'NONE',  ( -3.491481338843133355E-15, 1.224646799147353454E-16, -1.000000000000000000 ) ) ;
#289 = EDGE_LOOP ( 'NONE', ( #171 ) ) ;
#290 = CIRCLE ( 'NONE', #177, 1.255384493975580051 ) ;
#291 = ADVANCED_FACE ( 'NONE', ( #40 ), #14, .T. ) ;
#292 = DIRECTION ( 'NONE',  ( 3.491481338843133355E-15, -1.224646799147353454E-16, 1.000000000000000000 ) ) ;
#293 = CIRCLE ( 'NONE', #78, 1.224999999999998535 ) ;
#294 = FACE_BOUND ( 'NONE', #289, .T. ) ;
#295 = DIRECTION ( 'NONE',  ( 0.0000000000000000000, 1.000000000000000000, 0.0000000000000000000 ) ) ;
#296 = APPROVAL ( #112, 'UNSPECIFIED' ) ;
#297 = CARTESIAN_POINT ( 'NONE',  ( 3.491481338843133355E-14, 1.438499999999998558, 10.00000000000000000 ) ) ;
#298 = AXIS2_PLACEMENT_3D ( 'NONE', #189, #288, #50 ) ;
#299 = AXIS2_PLACEMENT_3D ( 'NONE', #105, #103, #129 ) ;
#300 = DIRECTION ( 'NONE',  ( -3.491481338843133355E-15, 1.224646799147353454E-16, -1.000000000000000000 ) ) ;
#301 = COORDINATED_UNIVERSAL_TIME_OFFSET ( 1, 0, .AHEAD. ) ;
#302 = PRODUCT ( '326995', '326995', '', ( #183 ) ) ;
#303 = VERTEX_POINT ( 'NONE', #286 ) ;
ENDSEC;
END-ISO-10303-21;
