ISO-10303-21;
HEADER;
FILE_DESCRIPTION (( 'STEP AP203' ),
    '1' );
FILE_NAME ('326994.step',
    '2021-11-30T09:57:08',
    ( '' ),
    ( '' ),
    'SwSTEP 2.0',
    'SolidWorks 2019',
    '' );
FILE_SCHEMA (( 'CONFIG_CONTROL_DESIGN' ));
ENDSEC;

DATA;
#1 = VERTEX_POINT ( 'NONE', #283 ) ;
#2 = APPROVAL_DATE_TIME ( #218, #232 ) ;
#3 = EDGE_LOOP ( 'NONE', ( #123 ) ) ;
#4 = CIRCLE ( 'NONE', #160, 1.224999999999998535 ) ;
#5 = APPLICATION_PROTOCOL_DEFINITION ( 'international standard', 'config_control_design', 1994, #51 ) ;
#6 = CARTESIAN_POINT ( 'NONE',  ( 3.491481338843133355E-14, 1.074952824222885064E-32, 10.00000000000000000 ) ) ;
#7 = PERSON_AND_ORGANIZATION ( #68, #9 ) ;
#8 = EDGE_CURVE ( 'NONE', #67, #67, #177, .T. ) ;
#9 = ORGANIZATION ( 'UNSPECIFIED', 'UNSPECIFIED', '' ) ;
#10 = FACE_BOUND ( 'NONE', #28, .T. ) ;
#11 = CARTESIAN_POINT ( 'NONE',  ( -9.297712921385099141E-31, 3.261198690048855714E-32, -2.662970819275752533E-16 ) ) ;
#12 = EDGE_CURVE ( 'NONE', #162, #162, #4, .T. ) ;
#13 = DIRECTION ( 'NONE',  ( 0.0000000000000000000, 1.000000000000000000, 0.0000000000000000000 ) ) ;
#14 = AXIS2_PLACEMENT_3D ( 'NONE', #11, #106, #29 ) ;
#15 = FACE_OUTER_BOUND ( 'NONE', #117, .T. ) ;
#16 = CARTESIAN_POINT ( 'NONE',  ( -4.648856460692549570E-31, 1.630599345024427857E-32, -1.331485409637876266E-16 ) ) ;
#17 = LOCAL_TIME ( 10, 57, 8.000000000000000000, #47 ) ;
#18 = DIRECTION ( 'NONE',  ( -3.491481338843133355E-15, 1.224646799147353454E-16, -1.000000000000000000 ) ) ;
#19 = FACE_OUTER_BOUND ( 'NONE', #155, .T. ) ;
#20 = ORIENTED_EDGE ( 'NONE', *, *, #121, .F. ) ;
#21 = VERTEX_POINT ( 'NONE', #236 ) ;
#22 = EDGE_LOOP ( 'NONE', ( #240 ) ) ;
#23 = PRODUCT_DEFINITION_FORMATION_WITH_SPECIFIED_SOURCE ( 'ANY', '', #175, .NOT_KNOWN. ) ;
#24 = AXIS2_PLACEMENT_3D ( 'NONE', #242, #102, #173 ) ;
#25 = PERSON_AND_ORGANIZATION_ROLE ( 'design_supplier' ) ;
#26 = ORIENTED_EDGE ( 'NONE', *, *, #83, .F. ) ;
#27 = CALENDAR_DATE ( 2021, 30, 11 ) ;
#28 = EDGE_LOOP ( 'NONE', ( #285 ) ) ;
#29 = DIRECTION ( 'NONE',  ( 4.275831445896959482E-31, 1.000000000000000000, 1.224646799147353454E-16 ) ) ;
#30 = DATE_AND_TIME ( #153, #49 ) ;
#31 = DATE_TIME_ROLE ( 'classification_date' ) ;
#32 = CC_DESIGN_PERSON_AND_ORGANIZATION_ASSIGNMENT ( #50, #222, ( #23 ) ) ;
#33 = AXIS2_PLACEMENT_3D ( 'NONE', #190, #18, #259 ) ;
#34 = DIRECTION ( 'NONE',  ( 0.0000000000000000000, 1.000000000000000000, 0.0000000000000000000 ) ) ;
#35 = DIRECTION ( 'NONE',  ( 4.030547494357664843E-31, 1.000000000000000000, 1.134498262105516607E-16 ) ) ;
#36 = EDGE_LOOP ( 'NONE', ( #48 ) ) ;
#37 = ADVANCED_BREP_SHAPE_REPRESENTATION ( '326994', ( #111, #226, #24 ), #168 ) ;
#38 = DIRECTION ( 'NONE',  ( -3.491481338843133355E-15, 1.224646799147353454E-16, -1.000000000000000000 ) ) ;
#39 = APPROVAL_PERSON_ORGANIZATION ( #7, #143, #194 ) ;
#40 = DIRECTION ( 'NONE',  ( 4.275831445896959482E-31, 1.000000000000000000, 1.224646799147353454E-16 ) ) ;
#41 = CYLINDRICAL_SURFACE ( 'NONE', #133, 1.433499999999999552 ) ;
#42 = DIRECTION ( 'NONE',  ( -3.491481338843133355E-15, 1.224646799147353454E-16, -1.000000000000000000 ) ) ;
#43 = CIRCLE ( 'NONE', #238, 1.500000000000001332 ) ;
#44 = VERTEX_POINT ( 'NONE', #118 ) ;
#45 = ORIENTED_EDGE ( 'NONE', *, *, #12, .T. ) ;
#46 = VERTEX_POINT ( 'NONE', #257 ) ;
#47 = COORDINATED_UNIVERSAL_TIME_OFFSET ( 1, 0, .AHEAD. ) ;
#48 = ORIENTED_EDGE ( 'NONE', *, *, #157, .T. ) ;
#49 = LOCAL_TIME ( 10, 57, 8.000000000000000000, #200 ) ;
#50 = PERSON_AND_ORGANIZATION ( #68, #9 ) ;
#51 = APPLICATION_CONTEXT ( 'configuration controlled 3d designs of mechanical parts and assemblies' ) ;
#52 = ADVANCED_FACE ( 'NONE', ( #249, #159 ), #195, .T. ) ;
#53 = SECURITY_CLASSIFICATION_LEVEL ( 'unclassified' ) ;
#54 = COORDINATED_UNIVERSAL_TIME_OFFSET ( 1, 0, .AHEAD. ) ;
#55 = EDGE_LOOP ( 'NONE', ( #303 ) ) ;
#56 = AXIS2_PLACEMENT_3D ( 'NONE', #250, #88, #273 ) ;
#57 = APPROVAL_ROLE ( '' ) ;
#58 = CC_DESIGN_SECURITY_CLASSIFICATION ( #252, ( #23 ) ) ;
#59 = FACE_OUTER_BOUND ( 'NONE', #130, .T. ) ;
#60 = ADVANCED_FACE ( 'NONE', ( #10, #158 ), #178, .T. ) ;
#61 = DIRECTION ( 'NONE',  ( 0.0000000000000000000, 1.000000000000000000, 0.0000000000000000000 ) ) ;
#62 = CARTESIAN_POINT ( 'NONE',  ( 2.119329172677781757E-13, -7.433606070824434221E-15, 60.69999999999999574 ) ) ;
#63 = DIRECTION ( 'NONE',  ( -4.275831445896959482E-31, -1.000000000000000000, -1.224646799147353454E-16 ) ) ;
#64 = AXIS2_PLACEMENT_3D ( 'NONE', #234, #276, #277 ) ;
#65 = PRODUCT_RELATED_PRODUCT_CATEGORY ( 'detail', '', ( #175 ) ) ;
#66 = CARTESIAN_POINT ( 'NONE',  ( 3.491481338843133355E-14, 1.433499999999998886, 10.00000000000000000 ) ) ;
#67 = VERTEX_POINT ( 'NONE', #281 ) ;
#68 = PERSON ( 'UNSPECIFIED', 'UNSPECIFIED', 'UNSPECIFIED', ('UNSPECIFIED'), ('UNSPECIFIED'), ('UNSPECIFIED') ) ;
#69 = DIRECTION ( 'NONE',  ( 3.491481338843133355E-15, -1.224646799147353454E-16, 1.000000000000000000 ) ) ;
#70 = AXIS2_PLACEMENT_3D ( 'NONE', #212, #115, #301 ) ;
#71 = DIRECTION ( 'NONE',  ( 4.275831445896959482E-31, 1.000000000000000000, 1.224646799147353454E-16 ) ) ;
#72 = ORIENTED_EDGE ( 'NONE', *, *, #83, .T. ) ;
#73 = EDGE_LOOP ( 'NONE', ( #132 ) ) ;
#74 = PERSON_AND_ORGANIZATION_ROLE ( 'design_owner' ) ;
#75 = EDGE_CURVE ( 'NONE', #46, #46, #127, .T. ) ;
#76 = AXIS2_PLACEMENT_3D ( 'NONE', #105, #248, #13 ) ;
#77 = CALENDAR_DATE ( 2021, 30, 11 ) ;
#78 = PERSON_AND_ORGANIZATION_ROLE ( 'creator' ) ;
#79 = DIRECTION ( 'NONE',  ( -3.491481338843133355E-15, 1.224646799147353454E-16, -1.000000000000000000 ) ) ;
#80 = CALENDAR_DATE ( 2021, 30, 11 ) ;
#81 = CC_DESIGN_APPROVAL ( #206, ( #23 ) ) ;
#82 = DIRECTION ( 'NONE',  ( 3.491481338843133355E-15, -1.224646799147353454E-16, 1.000000000000000000 ) ) ;
#83 = EDGE_CURVE ( 'NONE', #44, #44, #247, .T. ) ;
#84 = AXIS2_PLACEMENT_3D ( 'NONE', #214, #92, #302 ) ;
#85 = DIRECTION ( 'NONE',  ( -3.491481338843133355E-15, 1.224646799147353454E-16, -1.000000000000000000 ) ) ;
#86 = CARTESIAN_POINT ( 'NONE',  ( 3.491481338843133355E-14, 1.074952824222885064E-32, 10.00000000000000000 ) ) ;
#87 = CC_DESIGN_DATE_AND_TIME_ASSIGNMENT ( #147, #169, ( #256 ) ) ;
#88 = DIRECTION ( 'NONE',  ( -3.491481338843133355E-15, 1.224646799147353454E-16, -1.000000000000000000 ) ) ;
#89 = VERTEX_POINT ( 'NONE', #142 ) ;
#90 = AXIS2_PLACEMENT_3D ( 'NONE', #6, #181, #63 ) ;
#91 = CARTESIAN_POINT ( 'NONE',  ( 2.129803616694311221E-13, 8.998558695971049855E-33, 61.00000000000000000 ) ) ;
#92 = DIRECTION ( 'NONE',  ( -3.491481338843133355E-15, 1.224646799147353454E-16, -1.000000000000000000 ) ) ;
#93 = EDGE_LOOP ( 'NONE', ( #141 ) ) ;
#94 = UNCERTAINTY_MEASURE_WITH_UNIT (LENGTH_MEASURE( 1.000000000000000082E-05 ), #110, 'distance_accuracy_value', 'NONE');
#95 = FACE_OUTER_BOUND ( 'NONE', #73, .T. ) ;
#96 = FACE_OUTER_BOUND ( 'NONE', #22, .T. ) ;
#97 = SHAPE_DEFINITION_REPRESENTATION ( #292, #37 ) ;
#98 = EDGE_LOOP ( 'NONE', ( #45 ) ) ;
#99 = AXIS2_PLACEMENT_3D ( 'NONE', #205, #85, #108 ) ;
#100 = AXIS2_PLACEMENT_3D ( 'NONE', #86, #82, #228 ) ;
#101 = CARTESIAN_POINT ( 'NONE',  ( 0.0000000000000000000, 0.0000000000000000000, 0.0000000000000000000 ) ) ;
#102 = DIRECTION ( 'NONE',  ( 0.0000000000000000000, 0.0000000000000000000, 1.000000000000000000 ) ) ;
#103 = PERSON_AND_ORGANIZATION ( #68, #9 ) ;
#104 = CONICAL_SURFACE ( 'NONE', #279, 1.224999999999998535, 0.5235987755982922653 ) ;
#105 = CARTESIAN_POINT ( 'NONE',  ( 8.728703347107833388E-14, -3.061616997868383831E-15, 25.00000000000000000 ) ) ;
#106 = DIRECTION ( 'NONE',  ( -3.491481338843133355E-15, 1.224646799147353454E-16, -1.000000000000000000 ) ) ;
#107 = AXIS2_PLACEMENT_3D ( 'NONE', #253, #300, #136 ) ;
#108 = DIRECTION ( 'NONE',  ( 0.0000000000000000000, 1.000000000000000000, 0.0000000000000000000 ) ) ;
#109 = CYLINDRICAL_SURFACE ( 'NONE', #202, 1.224999999999999201 ) ;
#110 =( LENGTH_UNIT ( ) NAMED_UNIT ( * ) SI_UNIT ( .MILLI., .METRE. ) );
#111 = MANIFOLD_SOLID_BREP ( 'Corps-Déplacer/Copier1[1]', #187 ) ;
#112 = CLOSED_SHELL ( 'NONE', ( #170, #174, #241, #137 ) ) ;
#113 = DIRECTION ( 'NONE',  ( -3.491481338843133355E-15, 1.224646799147353454E-16, -1.000000000000000000 ) ) ;
#114 = AXIS2_PLACEMENT_3D ( 'NONE', #134, #231, #35 ) ;
#115 = DIRECTION ( 'NONE',  ( -3.491481338843133355E-15, 1.224646799147353454E-16, -1.000000000000000000 ) ) ;
#116 = ADVANCED_FACE ( 'NONE', ( #59 ), #180, .F. ) ;
#117 = EDGE_LOOP ( 'NONE', ( #260 ) ) ;
#118 = CARTESIAN_POINT ( 'NONE',  ( 2.129803616694311221E-13, 1.199999999999993960, 61.00000000000000000 ) ) ;
#119 = CARTESIAN_POINT ( 'NONE',  ( 3.617570109905906359E-14, 1.224999999999997202, 10.36113259337811954 ) ) ;
#120 = EDGE_LOOP ( 'NONE', ( #278 ) ) ;
#121 = EDGE_CURVE ( 'NONE', #89, #89, #43, .T. ) ;
#122 = CALENDAR_DATE ( 2021, 30, 11 ) ;
#123 = ORIENTED_EDGE ( 'NONE', *, *, #75, .T. ) ;
#124 = DATE_AND_TIME ( #77, #295 ) ;
#125 = EDGE_CURVE ( 'NONE', #255, #255, #152, .T. ) ;
#126 = FACE_OUTER_BOUND ( 'NONE', #191, .T. ) ;
#127 = CIRCLE ( 'NONE', #76, 1.224999999999999867 ) ;
#128 = PERSON_AND_ORGANIZATION ( #68, #9 ) ;
#129 = AXIS2_PLACEMENT_3D ( 'NONE', #101, #198, #289 ) ;
#130 = EDGE_LOOP ( 'NONE', ( #287 ) ) ;
#131 = EDGE_LOOP ( 'NONE', ( #219 ) ) ;
#132 = ORIENTED_EDGE ( 'NONE', *, *, #125, .F. ) ;
#133 = AXIS2_PLACEMENT_3D ( 'NONE', #235, #42, #40 ) ;
#134 = CARTESIAN_POINT ( 'NONE',  ( 8.728703347107827472E-16, -3.061616997868381785E-17, 0.2499999999999998335 ) ) ;
#135 = PLANE ( 'NONE',  #139 ) ;
#136 = DIRECTION ( 'NONE',  ( 0.0000000000000000000, 1.000000000000000000, 0.0000000000000000000 ) ) ;
#137 = ADVANCED_FACE ( 'NONE', ( #15 ), #293, .T. ) ;
#138 = FACE_OUTER_BOUND ( 'NONE', #264, .T. ) ;
#139 = AXIS2_PLACEMENT_3D ( 'NONE', #91, #113, #71 ) ;
#140 = CARTESIAN_POINT ( 'NONE',  ( 8.728703347107833388E-16, 1.433499999999998886, 0.2500000000000000000 ) ) ;
#141 = ORIENTED_EDGE ( 'NONE', *, *, #210, .T. ) ;
#142 = CARTESIAN_POINT ( 'NONE',  ( 2.119329172677781757E-13, 1.499999999999994005, 60.69999999999999574 ) ) ;
#143 = APPROVAL ( #150, 'UNSPECIFIED' ) ;
#144 = EDGE_LOOP ( 'NONE', ( #72 ) ) ;
#145 = PERSON_AND_ORGANIZATION ( #68, #9 ) ;
#146 = APPROVAL_PERSON_ORGANIZATION ( #128, #232, #261 ) ;
#147 = DATE_AND_TIME ( #27, #207 ) ;
#148 = PERSON_AND_ORGANIZATION_ROLE ( 'classification_officer' ) ;
#149 = EDGE_LOOP ( 'NONE', ( #258 ) ) ;
#150 = APPROVAL_STATUS ( 'not_yet_approved' ) ;
#151 = PLANE ( 'NONE',  #203 ) ;
#152 = CIRCLE ( 'NONE', #114, 1.433499999999998886 ) ;
#153 = CALENDAR_DATE ( 2021, 30, 11 ) ;
#154 = ADVANCED_FACE ( 'NONE', ( #269, #161 ), #109, .T. ) ;
#155 = EDGE_LOOP ( 'NONE', ( #26 ) ) ;
#156 = APPLICATION_CONTEXT ( 'configuration controlled 3d designs of mechanical parts and assemblies' ) ;
#157 = EDGE_CURVE ( 'NONE', #254, #254, #182, .T. ) ;
#158 = FACE_OUTER_BOUND ( 'NONE', #131, .T. ) ;
#159 = FACE_BOUND ( 'NONE', #144, .T. ) ;
#160 = AXIS2_PLACEMENT_3D ( 'NONE', #272, #38, #61 ) ;
#161 = FACE_OUTER_BOUND ( 'NONE', #3, .T. ) ;
#162 = VERTEX_POINT ( 'NONE', #119 ) ;
#163 = FACE_BOUND ( 'NONE', #98, .T. ) ;
#164 = CC_DESIGN_APPROVAL ( #143, ( #256 ) ) ;
#165 = DIRECTION ( 'NONE',  ( 0.0000000000000000000, 1.000000000000000000, 0.0000000000000000000 ) ) ;
#166 = ADVANCED_FACE ( 'NONE', ( #126, #223 ), #172, .T. ) ;
#167 = APPROVAL_STATUS ( 'not_yet_approved' ) ;
#168 =( GEOMETRIC_REPRESENTATION_CONTEXT ( 3 ) GLOBAL_UNCERTAINTY_ASSIGNED_CONTEXT ( ( #94 ) ) GLOBAL_UNIT_ASSIGNED_CONTEXT ( ( #110, #224, #192 ) ) REPRESENTATION_CONTEXT ( 'NONE', 'WORKASPACE' ) );
#169 = DATE_TIME_ROLE ( 'creation_date' ) ;
#170 = ADVANCED_FACE ( 'NONE', ( #266 ), #151, .F. ) ;
#171 = COORDINATED_UNIVERSAL_TIME_OFFSET ( 1, 0, .AHEAD. ) ;
#172 = CYLINDRICAL_SURFACE ( 'NONE', #129, 1.499999999999998668 ) ;
#173 = DIRECTION ( 'NONE',  ( 1.000000000000000000, 0.0000000000000000000, 0.0000000000000000000 ) ) ;
#174 = ADVANCED_FACE ( 'NONE', ( #237, #138 ), #291, .T. ) ;
#175 = PRODUCT ( '326994', '326994', '', ( #197 ) ) ;
#176 = DIRECTION ( 'NONE',  ( 0.0000000000000000000, 1.000000000000000000, 0.0000000000000000000 ) ) ;
#177 = CIRCLE ( 'NONE', #99, 1.255384493975580051 ) ;
#178 = CONICAL_SURFACE ( 'NONE', #270, 1.499999999999996003, 0.1745329251994270359 ) ;
#179 = DIRECTION ( 'NONE',  ( 3.491481338843133355E-15, -1.224646799147353454E-16, 1.000000000000000000 ) ) ;
#180 = PLANE ( 'NONE',  #100 ) ;
#181 = DIRECTION ( 'NONE',  ( 3.491481338843133355E-15, -1.224646799147353454E-16, 1.000000000000000000 ) ) ;
#182 = CIRCLE ( 'NONE', #14, 1.289162432702594341 ) ;
#183 = FACE_OUTER_BOUND ( 'NONE', #149, .T. ) ;
#184 = DIRECTION ( 'NONE',  ( -3.491481338843133355E-15, 1.224646799147353454E-16, -1.000000000000000000 ) ) ;
#185 = FACE_OUTER_BOUND ( 'NONE', #55, .T. ) ;
#186 = ORIENTED_EDGE ( 'NONE', *, *, #125, .T. ) ;
#187 = CLOSED_SHELL ( 'NONE', ( #116, #284, #154, #296, #60, #166, #52, #251 ) ) ;
#188 = DIRECTION ( 'NONE',  ( -4.275831445896959482E-31, -1.000000000000000000, -1.224646799147353454E-16 ) ) ;
#189 = AXIS2_PLACEMENT_3D ( 'NONE', #271, #79, #34 ) ;
#190 = CARTESIAN_POINT ( 'NONE',  ( 8.728703347107833388E-14, -3.035766082959412415E-15, 25.00000000000000000 ) ) ;
#191 = EDGE_LOOP ( 'NONE', ( #297 ) ) ;
#192 =( NAMED_UNIT ( * ) SI_UNIT ( $, .STERADIAN. ) SOLID_ANGLE_UNIT ( ) );
#193 = EDGE_LOOP ( 'NONE', ( #20 ) ) ;
#194 = APPROVAL_ROLE ( '' ) ;
#195 = CONICAL_SURFACE ( 'NONE', #189, 1.200000000000001510, 0.7853981633974453924 ) ;
#196 = EDGE_CURVE ( 'NONE', #21, #21, #286, .T. ) ;
#197 = MECHANICAL_CONTEXT ( 'NONE', #51, 'mechanical' ) ;
#198 = DIRECTION ( 'NONE',  ( -3.491481338843133355E-15, 1.224646799147353454E-16, -1.000000000000000000 ) ) ;
#199 = APPROVAL_DATE_TIME ( #244, #206 ) ;
#200 = COORDINATED_UNIVERSAL_TIME_OFFSET ( 1, 0, .AHEAD. ) ;
#201 = CC_DESIGN_PERSON_AND_ORGANIZATION_ASSIGNMENT ( #145, #74, ( #175 ) ) ;
#202 = AXIS2_PLACEMENT_3D ( 'NONE', #229, #209, #298 ) ;
#203 = AXIS2_PLACEMENT_3D ( 'NONE', #16, #69, #188 ) ;
#204 = DIRECTION ( 'NONE',  ( -3.491481338843133355E-15, 1.224646799147353454E-16, -1.000000000000000000 ) ) ;
#205 = CARTESIAN_POINT ( 'NONE',  ( 8.849961221477469775E-14, -3.104148534859897544E-15, 25.34729635533384595 ) ) ;
#206 = APPROVAL ( #263, 'UNSPECIFIED' ) ;
#207 = LOCAL_TIME ( 10, 57, 8.000000000000000000, #290 ) ;
#208 = DIRECTION ( 'NONE',  ( 0.0000000000000000000, -1.000000000000000000, 0.0000000000000000000 ) ) ;
#209 = DIRECTION ( 'NONE',  ( -3.491481338843133355E-15, 1.224646799147353454E-16, -1.000000000000000000 ) ) ;
#210 = EDGE_CURVE ( 'NONE', #215, #215, #268, .T. ) ;
#211 = CARTESIAN_POINT ( 'NONE',  ( 3.617570109905906359E-14, -1.268872786602183144E-15, 10.36113259337811954 ) ) ;
#212 = CARTESIAN_POINT ( 'NONE',  ( 3.491481338843133355E-14, -1.224646799147353454E-15, 10.00000000000000000 ) ) ;
#213 = CC_DESIGN_PERSON_AND_ORGANIZATION_ASSIGNMENT ( #267, #148, ( #252 ) ) ;
#214 = CARTESIAN_POINT ( 'NONE',  ( 9.334328656934240837E-14, -3.274041761223206859E-15, 26.73457982744675121 ) ) ;
#215 = VERTEX_POINT ( 'NONE', #66 ) ;
#216 = LOCAL_TIME ( 10, 57, 8.000000000000000000, #171 ) ;
#217 = ORIENTED_EDGE ( 'NONE', *, *, #157, .F. ) ;
#218 = DATE_AND_TIME ( #122, #17 ) ;
#219 = ORIENTED_EDGE ( 'NONE', *, *, #225, .T. ) ;
#220 = PERSON_AND_ORGANIZATION ( #68, #9 ) ;
#221 = CC_DESIGN_PERSON_AND_ORGANIZATION_ASSIGNMENT ( #220, #78, ( #256 ) ) ;
#222 = PERSON_AND_ORGANIZATION_ROLE ( 'creator' ) ;
#223 = FACE_OUTER_BOUND ( 'NONE', #120, .T. ) ;
#224 =( NAMED_UNIT ( * ) PLANE_ANGLE_UNIT ( ) SI_UNIT ( $, .RADIAN. ) );
#225 = EDGE_CURVE ( 'NONE', #1, #1, #274, .T. ) ;
#226 = MANIFOLD_SOLID_BREP ( 'Corps-Déplacer/Copier1[2]', #112 ) ;
#227 = PERSON_AND_ORGANIZATION ( #68, #9 ) ;
#228 = DIRECTION ( 'NONE',  ( -4.275831445896959482E-31, -1.000000000000000000, -1.224646799147353454E-16 ) ) ;
#229 = CARTESIAN_POINT ( 'NONE',  ( 0.0000000000000000000, 0.0000000000000000000, 0.0000000000000000000 ) ) ;
#230 = EDGE_LOOP ( 'NONE', ( #217 ) ) ;
#231 = DIRECTION ( 'NONE',  ( -3.491481338843133355E-15, 1.224646799147353454E-16, -1.000000000000000000 ) ) ;
#232 = APPROVAL ( #167, 'UNSPECIFIED' ) ;
#233 = CARTESIAN_POINT ( 'NONE',  ( -3.785471652766322713E-31, 1.289162432702594341, -1.084202172485504681E-16 ) ) ;
#234 = CARTESIAN_POINT ( 'NONE',  ( 8.728703347107827472E-16, -3.061616997868381785E-17, 0.2499999999999998335 ) ) ;
#235 = CARTESIAN_POINT ( 'NONE',  ( 0.0000000000000000000, 0.0000000000000000000, 0.0000000000000000000 ) ) ;
#236 = CARTESIAN_POINT ( 'NONE',  ( 3.491481338843133355E-14, 1.433499999999998886, 10.00000000000000000 ) ) ;
#237 = FACE_BOUND ( 'NONE', #230, .T. ) ;
#238 = AXIS2_PLACEMENT_3D ( 'NONE', #62, #204, #176 ) ;
#239 = APPROVAL_DATE_TIME ( #124, #143 ) ;
#240 = ORIENTED_EDGE ( 'NONE', *, *, #75, .F. ) ;
#241 = ADVANCED_FACE ( 'NONE', ( #95, #275 ), #41, .T. ) ;
#242 = CARTESIAN_POINT ( 'NONE',  ( 0.0000000000000000000, 0.0000000000000000000, 0.0000000000000000000 ) ) ;
#243 = ORIENTED_EDGE ( 'NONE', *, *, #12, .F. ) ;
#244 = DATE_AND_TIME ( #80, #216 ) ;
#245 = APPROVAL_PERSON_ORGANIZATION ( #103, #206, #57 ) ;
#246 = CC_DESIGN_DATE_AND_TIME_ASSIGNMENT ( #30, #31, ( #252 ) ) ;
#247 = CIRCLE ( 'NONE', #56, 1.200000000000001510 ) ;
#248 = DIRECTION ( 'NONE',  ( -3.491481338843133355E-15, 1.224646799147353454E-16, -1.000000000000000000 ) ) ;
#249 = FACE_OUTER_BOUND ( 'NONE', #193, .T. ) ;
#250 = CARTESIAN_POINT ( 'NONE',  ( 2.129803616694311221E-13, -7.470345474798856659E-15, 61.00000000000000000 ) ) ;
#251 = ADVANCED_FACE ( 'NONE', ( #19 ), #135, .F. ) ;
#252 = SECURITY_CLASSIFICATION ( '', '', #53 ) ;
#253 = CARTESIAN_POINT ( 'NONE',  ( 3.491481338843133355E-14, -1.224646799147353454E-15, 10.00000000000000000 ) ) ;
#254 = VERTEX_POINT ( 'NONE', #233 ) ;
#255 = VERTEX_POINT ( 'NONE', #140 ) ;
#256 = PRODUCT_DEFINITION ( 'UNKNOWN', '', #23, #280 ) ;
#257 = CARTESIAN_POINT ( 'NONE',  ( 8.728703347107833388E-14, 1.224999999999996980, 25.00000000000000000 ) ) ;
#258 = ORIENTED_EDGE ( 'NONE', *, *, #196, .F. ) ;
#259 = DIRECTION ( 'NONE',  ( 4.275831445896959482E-31, 1.000000000000000000, 1.224646799147353454E-16 ) ) ;
#260 = ORIENTED_EDGE ( 'NONE', *, *, #210, .F. ) ;
#261 = APPROVAL_ROLE ( '' ) ;
#262 = CC_DESIGN_APPROVAL ( #232, ( #252 ) ) ;
#263 = APPROVAL_STATUS ( 'not_yet_approved' ) ;
#264 = EDGE_LOOP ( 'NONE', ( #186 ) ) ;
#265 = CC_DESIGN_PERSON_AND_ORGANIZATION_ASSIGNMENT ( #227, #25, ( #23 ) ) ;
#266 = FACE_OUTER_BOUND ( 'NONE', #36, .T. ) ;
#267 = PERSON_AND_ORGANIZATION ( #68, #9 ) ;
#268 = CIRCLE ( 'NONE', #70, 1.433499999999999996 ) ;
#269 = FACE_OUTER_BOUND ( 'NONE', #282, .T. ) ;
#270 = AXIS2_PLACEMENT_3D ( 'NONE', #294, #179, #208 ) ;
#271 = CARTESIAN_POINT ( 'NONE',  ( 2.129803616694311221E-13, -7.470345474798856659E-15, 61.00000000000000000 ) ) ;
#272 = CARTESIAN_POINT ( 'NONE',  ( 3.617570109905906359E-14, -1.268872786602183144E-15, 10.36113259337811954 ) ) ;
#273 = DIRECTION ( 'NONE',  ( 0.0000000000000000000, 1.000000000000000000, 0.0000000000000000000 ) ) ;
#274 = CIRCLE ( 'NONE', #84, 1.499999999999996003 ) ;
#275 = FACE_OUTER_BOUND ( 'NONE', #93, .T. ) ;
#276 = DIRECTION ( 'NONE',  ( 3.491481338843133355E-15, -1.224646799147353454E-16, 1.000000000000000000 ) ) ;
#277 = DIRECTION ( 'NONE',  ( -4.030547494357664843E-31, -1.000000000000000000, -1.134498262105516607E-16 ) ) ;
#278 = ORIENTED_EDGE ( 'NONE', *, *, #121, .T. ) ;
#279 = AXIS2_PLACEMENT_3D ( 'NONE', #211, #184, #165 ) ;
#280 = DESIGN_CONTEXT ( 'detailed design', #156, 'design' ) ;
#281 = CARTESIAN_POINT ( 'NONE',  ( 8.849961221477469775E-14, 1.255384493975576943, 25.34729635533384595 ) ) ;
#282 = EDGE_LOOP ( 'NONE', ( #243 ) ) ;
#283 = CARTESIAN_POINT ( 'NONE',  ( 9.334328656934240837E-14, 1.499999999999992673, 26.73457982744675121 ) ) ;
#284 = ADVANCED_FACE ( 'NONE', ( #183, #163 ), #104, .T. ) ;
#285 = ORIENTED_EDGE ( 'NONE', *, *, #8, .F. ) ;
#286 = CIRCLE ( 'NONE', #107, 1.433499999999999996 ) ;
#287 = ORIENTED_EDGE ( 'NONE', *, *, #196, .T. ) ;
#288 = APPLICATION_PROTOCOL_DEFINITION ( 'international standard', 'config_control_design', 1994, #156 ) ;
#289 = DIRECTION ( 'NONE',  ( 4.275831445896960358E-31, 1.000000000000000000, 1.224646799147353454E-16 ) ) ;
#290 = COORDINATED_UNIVERSAL_TIME_OFFSET ( 1, 0, .AHEAD. ) ;
#291 = CONICAL_SURFACE ( 'NONE', #64, 1.433499999999998886, 0.5235987755982924874 ) ;
#292 = PRODUCT_DEFINITION_SHAPE ( 'NONE', 'NONE',  #256 ) ;
#293 = PLANE ( 'NONE',  #90 ) ;
#294 = CARTESIAN_POINT ( 'NONE',  ( 9.334328656934240837E-14, -3.274041761223206859E-15, 26.73457982744675121 ) ) ;
#295 = LOCAL_TIME ( 10, 57, 8.000000000000000000, #54 ) ;
#296 = ADVANCED_FACE ( 'NONE', ( #96, #185 ), #299, .F. ) ;
#297 = ORIENTED_EDGE ( 'NONE', *, *, #225, .F. ) ;
#298 = DIRECTION ( 'NONE',  ( 4.275831445896958607E-31, 1.000000000000000000, 1.224646799147353454E-16 ) ) ;
#299 = TOROIDAL_SURFACE ( 'NONE', #33, 3.225000000000000089, 2.000000000000000888 ) ;
#300 = DIRECTION ( 'NONE',  ( -3.491481338843133355E-15, 1.224646799147353454E-16, -1.000000000000000000 ) ) ;
#301 = DIRECTION ( 'NONE',  ( 0.0000000000000000000, 1.000000000000000000, 0.0000000000000000000 ) ) ;
#302 = DIRECTION ( 'NONE',  ( 0.0000000000000000000, 1.000000000000000000, 0.0000000000000000000 ) ) ;
#303 = ORIENTED_EDGE ( 'NONE', *, *, #8, .T. ) ;
ENDSEC;
END-ISO-10303-21;
