ISO-10303-21;
HEADER;
FILE_DESCRIPTION (( 'STEP AP203' ),
    '1' );
FILE_NAME ('326993.step',
    '2021-11-30T09:57:07',
    ( '' ),
    ( '' ),
    'SwSTEP 2.0',
    'SolidWorks 2019',
    '' );
FILE_SCHEMA (( 'CONFIG_CONTROL_DESIGN' ));
ENDSEC;

DATA;
#1 = DIRECTION ( 'NONE',  ( -3.491481338843133355E-15, 1.224646799147353454E-16, -1.000000000000000000 ) ) ;
#2 = EDGE_CURVE ( 'NONE', #169, #169, #94, .T. ) ;
#3 = VERTEX_POINT ( 'NONE', #257 ) ;
#4 = FACE_OUTER_BOUND ( 'NONE', #125, .T. ) ;
#5 = APPROVAL_ROLE ( '' ) ;
#6 = EDGE_LOOP ( 'NONE', ( #267 ) ) ;
#7 = EDGE_LOOP ( 'NONE', ( #35 ) ) ;
#8 = AXIS2_PLACEMENT_3D ( 'NONE', #297, #91, #66 ) ;
#9 = LOCAL_TIME ( 10, 57, 7.000000000000000000, #62 ) ;
#10 = EDGE_LOOP ( 'NONE', ( #156 ) ) ;
#11 = CARTESIAN_POINT ( 'NONE',  ( 3.491481338843133355E-14, 1.423499999999998877, 10.00000000000000000 ) ) ;
#12 = CALENDAR_DATE ( 2021, 30, 11 ) ;
#13 = CC_DESIGN_DATE_AND_TIME_ASSIGNMENT ( #289, #28, ( #141 ) ) ;
#14 = FACE_OUTER_BOUND ( 'NONE', #150, .T. ) ;
#15 = CARTESIAN_POINT ( 'NONE',  ( 8.849961221477469775E-14, 1.255384493975576943, 25.34729635533384595 ) ) ;
#16 = DIRECTION ( 'NONE',  ( -3.491481338843133355E-15, 1.224646799147353454E-16, -1.000000000000000000 ) ) ;
#17 = ORIENTED_EDGE ( 'NONE', *, *, #144, .F. ) ;
#18 = CIRCLE ( 'NONE', #199, 1.224999999999998535 ) ;
#19 = ORIENTED_EDGE ( 'NONE', *, *, #230, .T. ) ;
#20 = EDGE_CURVE ( 'NONE', #121, #121, #32, .T. ) ;
#21 = CARTESIAN_POINT ( 'NONE',  ( 3.611522686833351350E-14, -1.266751636124733252E-15, 10.34381208530243157 ) ) ;
#22 = FACE_OUTER_BOUND ( 'NONE', #136, .T. ) ;
#23 = PRODUCT ( '326993', '326993', '', ( #135 ) ) ;
#24 = DIRECTION ( 'NONE',  ( 0.0000000000000000000, 1.000000000000000000, 0.0000000000000000000 ) ) ;
#25 = APPROVAL_PERSON_ORGANIZATION ( #268, #48, #34 ) ;
#26 = PLANE ( 'NONE',  #276 ) ;
#27 = CARTESIAN_POINT ( 'NONE',  ( 0.0000000000000000000, 0.0000000000000000000, 0.0000000000000000000 ) ) ;
#28 = DATE_TIME_ROLE ( 'creation_date' ) ;
#29 = CONICAL_SURFACE ( 'NONE', #256, 1.200000000000001510, 0.7853981633974453924 ) ;
#30 = EDGE_CURVE ( 'NONE', #236, #236, #61, .T. ) ;
#31 = ADVANCED_FACE ( 'NONE', ( #137, #138 ), #233, .T. ) ;
#32 = CIRCLE ( 'NONE', #189, 1.423499999999998877 ) ;
#33 = APPLICATION_PROTOCOL_DEFINITION ( 'international standard', 'config_control_design', 1994, #183 ) ;
#34 = APPROVAL_ROLE ( '' ) ;
#35 = ORIENTED_EDGE ( 'NONE', *, *, #20, .T. ) ;
#36 = PERSON_AND_ORGANIZATION_ROLE ( 'classification_officer' ) ;
#37 = EDGE_LOOP ( 'NONE', ( #216 ) ) ;
#38 = LOCAL_TIME ( 10, 57, 7.000000000000000000, #122 ) ;
#39 = DIRECTION ( 'NONE',  ( 4.058861842754978599E-31, 1.000000000000000000, 1.142468042661227897E-16 ) ) ;
#40 = ORIENTED_EDGE ( 'NONE', *, *, #107, .F. ) ;
#41 = DIRECTION ( 'NONE',  ( 0.0000000000000000000, 1.000000000000000000, 0.0000000000000000000 ) ) ;
#42 = DIRECTION ( 'NONE',  ( 4.275831445896958607E-31, 1.000000000000000000, 1.224646799147353454E-16 ) ) ;
#43 = DIRECTION ( 'NONE',  ( -3.491481338843133355E-15, 1.224646799147353454E-16, -1.000000000000000000 ) ) ;
#44 = DIRECTION ( 'NONE',  ( -3.491481338843133355E-15, 1.224646799147353454E-16, -1.000000000000000000 ) ) ;
#45 = CARTESIAN_POINT ( 'NONE',  ( 3.491481338843133355E-14, 1.423499999999998877, 10.00000000000000000 ) ) ;
#46 = DIRECTION ( 'NONE',  ( 4.275831445896960358E-31, 1.000000000000000000, 1.224646799147353454E-16 ) ) ;
#47 = DIRECTION ( 'NONE',  ( 4.275831445896959482E-31, 1.000000000000000000, 1.224646799147353454E-16 ) ) ;
#48 = APPROVAL ( #152, 'UNSPECIFIED' ) ;
#49 = MANIFOLD_SOLID_BREP ( 'Corps-Déplacer/Copier1[2]', #290 ) ;
#50 = AXIS2_PLACEMENT_3D ( 'NONE', #119, #73, #208 ) ;
#51 = LOCAL_TIME ( 10, 57, 7.000000000000000000, #131 ) ;
#52 = ORIENTED_EDGE ( 'NONE', *, *, #2, .F. ) ;
#53 = APPROVAL_PERSON_ORGANIZATION ( #264, #300, #5 ) ;
#54 = PERSON_AND_ORGANIZATION ( #197, #287 ) ;
#55 = APPROVAL_STATUS ( 'not_yet_approved' ) ;
#56 = ORIENTED_EDGE ( 'NONE', *, *, #70, .F. ) ;
#57 = ADVANCED_FACE ( 'NONE', ( #229, #59 ), #163, .T. ) ;
#58 = CARTESIAN_POINT ( 'NONE',  ( 2.119329172677781757E-13, 1.499999999999994005, 60.69999999999999574 ) ) ;
#59 = FACE_OUTER_BOUND ( 'NONE', #173, .T. ) ;
#60 = DESIGN_CONTEXT ( 'detailed design', #96, 'design' ) ;
#61 = CIRCLE ( 'NONE', #151, 1.224999999999999867 ) ;
#62 = COORDINATED_UNIVERSAL_TIME_OFFSET ( 1, 0, .AHEAD. ) ;
#63 = CC_DESIGN_APPROVAL ( #48, ( #141 ) ) ;
#64 = DIRECTION ( 'NONE',  ( -3.491481338843133355E-15, 1.224646799147353454E-16, -1.000000000000000000 ) ) ;
#65 = DIRECTION ( 'NONE',  ( 3.491481338843133355E-15, -1.224646799147353454E-16, 1.000000000000000000 ) ) ;
#66 = DIRECTION ( 'NONE',  ( -4.275831445896959482E-31, -1.000000000000000000, -1.224646799147353454E-16 ) ) ;
#67 = AXIS2_PLACEMENT_3D ( 'NONE', #291, #84, #120 ) ;
#68 =( GEOMETRIC_REPRESENTATION_CONTEXT ( 3 ) GLOBAL_UNCERTAINTY_ASSIGNED_CONTEXT ( ( #114 ) ) GLOBAL_UNIT_ASSIGNED_CONTEXT ( ( #158, #266, #155 ) ) REPRESENTATION_CONTEXT ( 'NONE', 'WORKASPACE' ) );
#69 = CYLINDRICAL_SURFACE ( 'NONE', #227, 1.499999999999998668 ) ;
#70 = EDGE_CURVE ( 'NONE', #187, #187, #286, .T. ) ;
#71 = DIRECTION ( 'NONE',  ( -3.491481338843133355E-15, 1.224646799147353454E-16, -1.000000000000000000 ) ) ;
#72 = CALENDAR_DATE ( 2021, 30, 11 ) ;
#73 = DIRECTION ( 'NONE',  ( -3.491481338843133355E-15, 1.224646799147353454E-16, -1.000000000000000000 ) ) ;
#74 = FACE_OUTER_BOUND ( 'NONE', #177, .T. ) ;
#75 = PLANE ( 'NONE',  #237 ) ;
#76 = ADVANCED_FACE ( 'NONE', ( #90, #265 ), #89, .T. ) ;
#77 = PRODUCT_DEFINITION_SHAPE ( 'NONE', 'NONE',  #141 ) ;
#78 = VERTEX_POINT ( 'NONE', #58 ) ;
#79 = AXIS2_PLACEMENT_3D ( 'NONE', #92, #117, #303 ) ;
#80 = AXIS2_PLACEMENT_3D ( 'NONE', #244, #223, #106 ) ;
#81 = ADVANCED_FACE ( 'NONE', ( #221, #115 ), #29, .T. ) ;
#82 = CIRCLE ( 'NONE', #108, 1.423499999999999988 ) ;
#83 = VERTEX_POINT ( 'NONE', #11 ) ;
#84 = DIRECTION ( 'NONE',  ( -3.491481338843133355E-15, 1.224646799147353454E-16, -1.000000000000000000 ) ) ;
#85 = CC_DESIGN_PERSON_AND_ORGANIZATION_ASSIGNMENT ( #217, #213, ( #23 ) ) ;
#86 = APPLICATION_PROTOCOL_DEFINITION ( 'international standard', 'config_control_design', 1994, #96 ) ;
#87 = DIRECTION ( 'NONE',  ( 0.0000000000000000000, 1.000000000000000000, 0.0000000000000000000 ) ) ;
#88 = VERTEX_POINT ( 'NONE', #15 ) ;
#89 = CYLINDRICAL_SURFACE ( 'NONE', #103, 1.224999999999999201 ) ;
#90 = FACE_OUTER_BOUND ( 'NONE', #248, .T. ) ;
#91 = DIRECTION ( 'NONE',  ( 3.491481338843133355E-15, -1.224646799147353454E-16, 1.000000000000000000 ) ) ;
#92 = CARTESIAN_POINT ( 'NONE',  ( 2.129803616694311221E-13, 8.998558695971049855E-33, 61.00000000000000000 ) ) ;
#93 = ADVANCED_FACE ( 'NONE', ( #14 ), #271, .F. ) ;
#94 = CIRCLE ( 'NONE', #215, 1.499999999999996003 ) ;
#95 = FACE_OUTER_BOUND ( 'NONE', #194, .T. ) ;
#96 = APPLICATION_CONTEXT ( 'configuration controlled 3d designs of mechanical parts and assemblies' ) ;
#97 = CARTESIAN_POINT ( 'NONE',  ( 9.334328656934240837E-14, 1.499999999999992673, 26.73457982744675121 ) ) ;
#98 = DIRECTION ( 'NONE',  ( -3.491481338843133355E-15, 1.224646799147353454E-16, -1.000000000000000000 ) ) ;
#99 = DIRECTION ( 'NONE',  ( 0.0000000000000000000, 1.000000000000000000, 0.0000000000000000000 ) ) ;
#100 = CIRCLE ( 'NONE', #168, 1.279162432702594554 ) ;
#101 = DATE_AND_TIME ( #242, #38 ) ;
#102 = ORIENTED_EDGE ( 'NONE', *, *, #195, .T. ) ;
#103 = AXIS2_PLACEMENT_3D ( 'NONE', #294, #64, #42 ) ;
#104 = SECURITY_CLASSIFICATION ( '', '', #127 ) ;
#105 = ORIENTED_EDGE ( 'NONE', *, *, #30, .T. ) ;
#106 = DIRECTION ( 'NONE',  ( 1.000000000000000000, 0.0000000000000000000, 0.0000000000000000000 ) ) ;
#107 = EDGE_CURVE ( 'NONE', #143, #143, #18, .T. ) ;
#108 = AXIS2_PLACEMENT_3D ( 'NONE', #235, #44, #210 ) ;
#109 = DATE_AND_TIME ( #12, #51 ) ;
#110 = DIRECTION ( 'NONE',  ( 0.0000000000000000000, -1.000000000000000000, 0.0000000000000000000 ) ) ;
#111 = CC_DESIGN_PERSON_AND_ORGANIZATION_ASSIGNMENT ( #284, #175, ( #141 ) ) ;
#112 = APPROVAL_DATE_TIME ( #296, #260 ) ;
#113 = DIRECTION ( 'NONE',  ( -4.058861842754978599E-31, -1.000000000000000000, -1.142468042661227897E-16 ) ) ;
#114 = UNCERTAINTY_MEASURE_WITH_UNIT (LENGTH_MEASURE( 1.000000000000000082E-05 ), #158, 'distance_accuracy_value', 'NONE');
#115 = FACE_BOUND ( 'NONE', #6, .T. ) ;
#116 = VERTEX_POINT ( 'NONE', #239 ) ;
#117 = DIRECTION ( 'NONE',  ( -3.491481338843133355E-15, 1.224646799147353454E-16, -1.000000000000000000 ) ) ;
#118 = AXIS2_PLACEMENT_3D ( 'NONE', #279, #71, #99 ) ;
#119 = CARTESIAN_POINT ( 'NONE',  ( 8.728703347107833388E-14, -3.035766082959412415E-15, 25.00000000000000000 ) ) ;
#120 = DIRECTION ( 'NONE',  ( 0.0000000000000000000, 1.000000000000000000, 0.0000000000000000000 ) ) ;
#121 = VERTEX_POINT ( 'NONE', #146 ) ;
#122 = COORDINATED_UNIVERSAL_TIME_OFFSET ( 1, 0, .AHEAD. ) ;
#123 = CC_DESIGN_SECURITY_CLASSIFICATION ( #104, ( #212 ) ) ;
#124 = EDGE_CURVE ( 'NONE', #3, #3, #252, .T. ) ;
#125 = EDGE_LOOP ( 'NONE', ( #19 ) ) ;
#126 = AXIS2_PLACEMENT_3D ( 'NONE', #27, #1, #47 ) ;
#127 = SECURITY_CLASSIFICATION_LEVEL ( 'unclassified' ) ;
#128 = ADVANCED_FACE ( 'NONE', ( #22 ), #75, .F. ) ;
#129 = APPROVAL_DATE_TIME ( #288, #48 ) ;
#130 = ORIENTED_EDGE ( 'NONE', *, *, #107, .T. ) ;
#131 = COORDINATED_UNIVERSAL_TIME_OFFSET ( 1, 0, .AHEAD. ) ;
#132 = DIRECTION ( 'NONE',  ( 3.491481338843133355E-15, -1.224646799147353454E-16, 1.000000000000000000 ) ) ;
#133 = AXIS2_PLACEMENT_3D ( 'NONE', #166, #254, #190 ) ;
#134 = LOCAL_TIME ( 10, 57, 7.000000000000000000, #228 ) ;
#135 = MECHANICAL_CONTEXT ( 'NONE', #183, 'mechanical' ) ;
#136 = EDGE_LOOP ( 'NONE', ( #102 ) ) ;
#137 = FACE_BOUND ( 'NONE', #225, .T. ) ;
#138 = FACE_OUTER_BOUND ( 'NONE', #7, .T. ) ;
#139 = AXIS2_PLACEMENT_3D ( 'NONE', #282, #43, #24 ) ;
#140 = DIRECTION ( 'NONE',  ( -3.491481338843133355E-15, 1.224646799147353454E-16, -1.000000000000000000 ) ) ;
#141 = PRODUCT_DEFINITION ( 'UNKNOWN', '', #212, #60 ) ;
#142 = DIRECTION ( 'NONE',  ( -4.275831445896959482E-31, -1.000000000000000000, -1.224646799147353454E-16 ) ) ;
#143 = VERTEX_POINT ( 'NONE', #234 ) ;
#144 = EDGE_CURVE ( 'NONE', #116, #116, #100, .T. ) ;
#145 = FACE_OUTER_BOUND ( 'NONE', #240, .T. ) ;
#146 = CARTESIAN_POINT ( 'NONE',  ( 8.728703347107833388E-16, 1.423499999999998877, 0.2500000000000000000 ) ) ;
#147 = CC_DESIGN_PERSON_AND_ORGANIZATION_ASSIGNMENT ( #54, #36, ( #104 ) ) ;
#148 = PERSON_AND_ORGANIZATION_ROLE ( 'design_supplier' ) ;
#149 = CIRCLE ( 'NONE', #118, 1.500000000000001332 ) ;
#150 = EDGE_LOOP ( 'NONE', ( #285 ) ) ;
#151 = AXIS2_PLACEMENT_3D ( 'NONE', #203, #251, #295 ) ;
#152 = APPROVAL_STATUS ( 'not_yet_approved' ) ;
#153 = PERSON_AND_ORGANIZATION ( #197, #287 ) ;
#154 = CARTESIAN_POINT ( 'NONE',  ( 8.728703347107827472E-16, -3.061616997868381785E-17, 0.2499999999999998335 ) ) ;
#155 =( NAMED_UNIT ( * ) SI_UNIT ( $, .STERADIAN. ) SOLID_ANGLE_UNIT ( ) );
#156 = ORIENTED_EDGE ( 'NONE', *, *, #195, .F. ) ;
#157 = CIRCLE ( 'NONE', #133, 1.255384493975580051 ) ;
#158 =( LENGTH_UNIT ( ) NAMED_UNIT ( * ) SI_UNIT ( .MILLI., .METRE. ) );
#159 = DIRECTION ( 'NONE',  ( 0.0000000000000000000, 1.000000000000000000, 0.0000000000000000000 ) ) ;
#160 = ORIENTED_EDGE ( 'NONE', *, *, #269, .T. ) ;
#161 = ORIENTED_EDGE ( 'NONE', *, *, #2, .T. ) ;
#162 = ADVANCED_FACE ( 'NONE', ( #145 ), #275, .F. ) ;
#163 = CONICAL_SURFACE ( 'NONE', #174, 1.499999999999996003, 0.1745329251994270359 ) ;
#164 = LOCAL_TIME ( 10, 57, 7.000000000000000000, #219 ) ;
#165 = FACE_BOUND ( 'NONE', #180, .T. ) ;
#166 = CARTESIAN_POINT ( 'NONE',  ( 8.849961221477469775E-14, -3.104148534859897544E-15, 25.34729635533384595 ) ) ;
#167 = CARTESIAN_POINT ( 'NONE',  ( 8.728703347107833388E-14, 1.224999999999996980, 25.00000000000000000 ) ) ;
#168 = AXIS2_PLACEMENT_3D ( 'NONE', #253, #98, #184 ) ;
#169 = VERTEX_POINT ( 'NONE', #97 ) ;
#170 = FACE_OUTER_BOUND ( 'NONE', #182, .T. ) ;
#171 = APPROVAL_DATE_TIME ( #101, #300 ) ;
#172 = CLOSED_SHELL ( 'NONE', ( #128, #181, #76, #281, #57, #192, #81, #162 ) ) ;
#173 = EDGE_LOOP ( 'NONE', ( #161 ) ) ;
#174 = AXIS2_PLACEMENT_3D ( 'NONE', #178, #65, #110 ) ;
#175 = PERSON_AND_ORGANIZATION_ROLE ( 'creator' ) ;
#176 = DIRECTION ( 'NONE',  ( 0.0000000000000000000, 1.000000000000000000, 0.0000000000000000000 ) ) ;
#177 = EDGE_LOOP ( 'NONE', ( #226 ) ) ;
#178 = CARTESIAN_POINT ( 'NONE',  ( 9.334328656934240837E-14, -3.274041761223206859E-15, 26.73457982744675121 ) ) ;
#179 = PERSON_AND_ORGANIZATION ( #197, #287 ) ;
#180 = EDGE_LOOP ( 'NONE', ( #130 ) ) ;
#181 = ADVANCED_FACE ( 'NONE', ( #283, #165 ), #263, .T. ) ;
#182 = EDGE_LOOP ( 'NONE', ( #292 ) ) ;
#183 = APPLICATION_CONTEXT ( 'configuration controlled 3d designs of mechanical parts and assemblies' ) ;
#184 = DIRECTION ( 'NONE',  ( 4.275831445896959482E-31, 1.000000000000000000, 1.224646799147353454E-16 ) ) ;
#185 = TOROIDAL_SURFACE ( 'NONE', #50, 3.225000000000000089, 2.000000000000000888 ) ;
#186 = CARTESIAN_POINT ( 'NONE',  ( 3.491481338843133355E-14, 1.067454025309575721E-32, 10.00000000000000000 ) ) ;
#187 = VERTEX_POINT ( 'NONE', #45 ) ;
#188 = FACE_OUTER_BOUND ( 'NONE', #243, .T. ) ;
#189 = AXIS2_PLACEMENT_3D ( 'NONE', #154, #202, #39 ) ;
#190 = DIRECTION ( 'NONE',  ( 0.0000000000000000000, 1.000000000000000000, 0.0000000000000000000 ) ) ;
#191 = PERSON_AND_ORGANIZATION_ROLE ( 'creator' ) ;
#192 = ADVANCED_FACE ( 'NONE', ( #188, #4 ), #69, .T. ) ;
#193 = ORIENTED_EDGE ( 'NONE', *, *, #124, .F. ) ;
#194 = EDGE_LOOP ( 'NONE', ( #56 ) ) ;
#195 = EDGE_CURVE ( 'NONE', #83, #83, #82, .T. ) ;
#196 = EDGE_LOOP ( 'NONE', ( #160 ) ) ;
#197 = PERSON ( 'UNSPECIFIED', 'UNSPECIFIED', 'UNSPECIFIED', ('UNSPECIFIED'), ('UNSPECIFIED'), ('UNSPECIFIED') ) ;
#198 = CALENDAR_DATE ( 2021, 30, 11 ) ;
#199 = AXIS2_PLACEMENT_3D ( 'NONE', #21, #201, #176 ) ;
#200 = EDGE_LOOP ( 'NONE', ( #274 ) ) ;
#201 = DIRECTION ( 'NONE',  ( -3.491481338843133355E-15, 1.224646799147353454E-16, -1.000000000000000000 ) ) ;
#202 = DIRECTION ( 'NONE',  ( -3.491481338843133355E-15, 1.224646799147353454E-16, -1.000000000000000000 ) ) ;
#203 = CARTESIAN_POINT ( 'NONE',  ( 8.728703347107833388E-14, -3.061616997868383831E-15, 25.00000000000000000 ) ) ;
#204 = CARTESIAN_POINT ( 'NONE',  ( 2.129803616694311221E-13, -7.470345474798856659E-15, 61.00000000000000000 ) ) ;
#205 = DIRECTION ( 'NONE',  ( 3.491481338843133355E-15, -1.224646799147353454E-16, 1.000000000000000000 ) ) ;
#206 = DIRECTION ( 'NONE',  ( -3.491481338843133355E-15, 1.224646799147353454E-16, -1.000000000000000000 ) ) ;
#207 = AXIS2_PLACEMENT_3D ( 'NONE', #272, #132, #113 ) ;
#208 = DIRECTION ( 'NONE',  ( 4.275831445896959482E-31, 1.000000000000000000, 1.224646799147353454E-16 ) ) ;
#209 = FACE_OUTER_BOUND ( 'NONE', #238, .T. ) ;
#210 = DIRECTION ( 'NONE',  ( 0.0000000000000000000, 1.000000000000000000, 0.0000000000000000000 ) ) ;
#211 = AXIS2_PLACEMENT_3D ( 'NONE', #224, #16, #41 ) ;
#212 = PRODUCT_DEFINITION_FORMATION_WITH_SPECIFIED_SOURCE ( 'ANY', '', #23, .NOT_KNOWN. ) ;
#213 = PERSON_AND_ORGANIZATION_ROLE ( 'design_owner' ) ;
#214 = CC_DESIGN_PERSON_AND_ORGANIZATION_ASSIGNMENT ( #259, #148, ( #212 ) ) ;
#215 = AXIS2_PLACEMENT_3D ( 'NONE', #250, #245, #87 ) ;
#216 = ORIENTED_EDGE ( 'NONE', *, *, #269, .F. ) ;
#217 = PERSON_AND_ORGANIZATION ( #197, #287 ) ;
#218 = EDGE_LOOP ( 'NONE', ( #105 ) ) ;
#219 = COORDINATED_UNIVERSAL_TIME_OFFSET ( 1, 0, .AHEAD. ) ;
#220 = ADVANCED_FACE ( 'NONE', ( #95 ), #26, .T. ) ;
#221 = FACE_OUTER_BOUND ( 'NONE', #200, .T. ) ;
#222 = CC_DESIGN_APPROVAL ( #300, ( #212 ) ) ;
#223 = DIRECTION ( 'NONE',  ( 0.0000000000000000000, 0.0000000000000000000, 1.000000000000000000 ) ) ;
#224 = CARTESIAN_POINT ( 'NONE',  ( 3.491481338843133355E-14, -1.224646799147353454E-15, 10.00000000000000000 ) ) ;
#225 = EDGE_LOOP ( 'NONE', ( #17 ) ) ;
#226 = ORIENTED_EDGE ( 'NONE', *, *, #20, .F. ) ;
#227 = AXIS2_PLACEMENT_3D ( 'NONE', #255, #206, #46 ) ;
#228 = COORDINATED_UNIVERSAL_TIME_OFFSET ( 1, 0, .AHEAD. ) ;
#229 = FACE_BOUND ( 'NONE', #37, .T. ) ;
#230 = EDGE_CURVE ( 'NONE', #78, #78, #149, .T. ) ;
#231 = DIRECTION ( 'NONE',  ( -4.275831445896959482E-31, -1.000000000000000000, -1.224646799147353454E-16 ) ) ;
#232 = CYLINDRICAL_SURFACE ( 'NONE', #126, 1.423499999999999321 ) ;
#233 = CONICAL_SURFACE ( 'NONE', #207, 1.423499999999998877, 0.5235987755982918213 ) ;
#234 = CARTESIAN_POINT ( 'NONE',  ( 3.611522686833351350E-14, 1.224999999999997202, 10.34381208530243157 ) ) ;
#235 = CARTESIAN_POINT ( 'NONE',  ( 3.491481338843133355E-14, -1.224646799147353454E-15, 10.00000000000000000 ) ) ;
#236 = VERTEX_POINT ( 'NONE', #167 ) ;
#237 = AXIS2_PLACEMENT_3D ( 'NONE', #280, #205, #231 ) ;
#238 = EDGE_LOOP ( 'NONE', ( #261 ) ) ;
#239 = CARTESIAN_POINT ( 'NONE',  ( -3.785471652766322713E-31, 1.279162432702594554, -1.084202172485504434E-16 ) ) ;
#240 = EDGE_LOOP ( 'NONE', ( #193 ) ) ;
#241 = CC_DESIGN_PERSON_AND_ORGANIZATION_ASSIGNMENT ( #153, #191, ( #212 ) ) ;
#242 = CALENDAR_DATE ( 2021, 30, 11 ) ;
#243 = EDGE_LOOP ( 'NONE', ( #52 ) ) ;
#244 = CARTESIAN_POINT ( 'NONE',  ( 0.0000000000000000000, 0.0000000000000000000, 0.0000000000000000000 ) ) ;
#245 = DIRECTION ( 'NONE',  ( -3.491481338843133355E-15, 1.224646799147353454E-16, -1.000000000000000000 ) ) ;
#246 = CC_DESIGN_APPROVAL ( #260, ( #104 ) ) ;
#247 = PRODUCT_RELATED_PRODUCT_CATEGORY ( 'detail', '', ( #23 ) ) ;
#248 = EDGE_LOOP ( 'NONE', ( #40 ) ) ;
#249 = MANIFOLD_SOLID_BREP ( 'Corps-Déplacer/Copier1[1]', #172 ) ;
#250 = CARTESIAN_POINT ( 'NONE',  ( 9.334328656934240837E-14, -3.274041761223206859E-15, 26.73457982744675121 ) ) ;
#251 = DIRECTION ( 'NONE',  ( -3.491481338843133355E-15, 1.224646799147353454E-16, -1.000000000000000000 ) ) ;
#252 = CIRCLE ( 'NONE', #67, 1.200000000000001510 ) ;
#253 = CARTESIAN_POINT ( 'NONE',  ( -9.254954606926129712E-31, 3.246201092222237029E-32, -2.650724351284278781E-16 ) ) ;
#254 = DIRECTION ( 'NONE',  ( -3.491481338843133355E-15, 1.224646799147353454E-16, -1.000000000000000000 ) ) ;
#255 = CARTESIAN_POINT ( 'NONE',  ( 0.0000000000000000000, 0.0000000000000000000, 0.0000000000000000000 ) ) ;
#256 = AXIS2_PLACEMENT_3D ( 'NONE', #204, #140, #159 ) ;
#257 = CARTESIAN_POINT ( 'NONE',  ( 2.129803616694311221E-13, 1.199999999999993960, 61.00000000000000000 ) ) ;
#258 = FACE_OUTER_BOUND ( 'NONE', #196, .T. ) ;
#259 = PERSON_AND_ORGANIZATION ( #197, #287 ) ;
#260 = APPROVAL ( #299, 'UNSPECIFIED' ) ;
#261 = ORIENTED_EDGE ( 'NONE', *, *, #70, .T. ) ;
#262 = CALENDAR_DATE ( 2021, 30, 11 ) ;
#263 = CONICAL_SURFACE ( 'NONE', #139, 1.224999999999998535, 0.5235987755982917102 ) ;
#264 = PERSON_AND_ORGANIZATION ( #197, #287 ) ;
#265 = FACE_OUTER_BOUND ( 'NONE', #218, .T. ) ;
#266 =( NAMED_UNIT ( * ) PLANE_ANGLE_UNIT ( ) SI_UNIT ( $, .RADIAN. ) );
#267 = ORIENTED_EDGE ( 'NONE', *, *, #124, .T. ) ;
#268 = PERSON_AND_ORGANIZATION ( #197, #287 ) ;
#269 = EDGE_CURVE ( 'NONE', #88, #88, #157, .T. ) ;
#270 = APPROVAL_PERSON_ORGANIZATION ( #179, #260, #273 ) ;
#271 = PLANE ( 'NONE',  #8 ) ;
#272 = CARTESIAN_POINT ( 'NONE',  ( 8.728703347107827472E-16, -3.061616997868381785E-17, 0.2499999999999998335 ) ) ;
#273 = APPROVAL_ROLE ( '' ) ;
#274 = ORIENTED_EDGE ( 'NONE', *, *, #230, .F. ) ;
#275 = PLANE ( 'NONE',  #79 ) ;
#276 = AXIS2_PLACEMENT_3D ( 'NONE', #186, #301, #142 ) ;
#277 = CC_DESIGN_DATE_AND_TIME_ASSIGNMENT ( #109, #302, ( #104 ) ) ;
#278 = SHAPE_DEFINITION_REPRESENTATION ( #77, #298 ) ;
#279 = CARTESIAN_POINT ( 'NONE',  ( 2.119329172677781757E-13, -7.433606070824434221E-15, 60.69999999999999574 ) ) ;
#280 = CARTESIAN_POINT ( 'NONE',  ( 3.491481338843133355E-14, 1.067454025309575721E-32, 10.00000000000000000 ) ) ;
#281 = ADVANCED_FACE ( 'NONE', ( #170, #258 ), #185, .F. ) ;
#282 = CARTESIAN_POINT ( 'NONE',  ( 3.611522686833351350E-14, -1.266751636124733252E-15, 10.34381208530243157 ) ) ;
#283 = FACE_OUTER_BOUND ( 'NONE', #10, .T. ) ;
#284 = PERSON_AND_ORGANIZATION ( #197, #287 ) ;
#285 = ORIENTED_EDGE ( 'NONE', *, *, #144, .T. ) ;
#286 = CIRCLE ( 'NONE', #211, 1.423499999999999988 ) ;
#287 = ORGANIZATION ( 'UNSPECIFIED', 'UNSPECIFIED', '' ) ;
#288 = DATE_AND_TIME ( #198, #164 ) ;
#289 = DATE_AND_TIME ( #262, #9 ) ;
#290 = CLOSED_SHELL ( 'NONE', ( #93, #31, #293, #220 ) ) ;
#291 = CARTESIAN_POINT ( 'NONE',  ( 2.129803616694311221E-13, -7.470345474798856659E-15, 61.00000000000000000 ) ) ;
#292 = ORIENTED_EDGE ( 'NONE', *, *, #30, .F. ) ;
#293 = ADVANCED_FACE ( 'NONE', ( #74, #209 ), #232, .T. ) ;
#294 = CARTESIAN_POINT ( 'NONE',  ( 0.0000000000000000000, 0.0000000000000000000, 0.0000000000000000000 ) ) ;
#295 = DIRECTION ( 'NONE',  ( 0.0000000000000000000, 1.000000000000000000, 0.0000000000000000000 ) ) ;
#296 = DATE_AND_TIME ( #72, #134 ) ;
#297 = CARTESIAN_POINT ( 'NONE',  ( -4.627477303463064856E-31, 1.623100546111118514E-32, -1.325362175642139391E-16 ) ) ;
#298 = ADVANCED_BREP_SHAPE_REPRESENTATION ( '326993', ( #249, #49, #80 ), #68 ) ;
#299 = APPROVAL_STATUS ( 'not_yet_approved' ) ;
#300 = APPROVAL ( #55, 'UNSPECIFIED' ) ;
#301 = DIRECTION ( 'NONE',  ( 3.491481338843133355E-15, -1.224646799147353454E-16, 1.000000000000000000 ) ) ;
#302 = DATE_TIME_ROLE ( 'classification_date' ) ;
#303 = DIRECTION ( 'NONE',  ( 4.275831445896959482E-31, 1.000000000000000000, 1.224646799147353454E-16 ) ) ;
ENDSEC;
END-ISO-10303-21;
