ISO-10303-21;
HEADER;
FILE_DESCRIPTION (( 'STEP AP203' ),
    '1' );
FILE_NAME ('326992.step',
    '2021-11-30T09:57:07',
    ( '' ),
    ( '' ),
    'SwSTEP 2.0',
    'SolidWorks 2019',
    '' );
FILE_SCHEMA (( 'CONFIG_CONTROL_DESIGN' ));
ENDSEC;

DATA;
#1 = DIRECTION ( 'NONE',  ( 0.0000000000000000000, 1.000000000000000000, 0.0000000000000000000 ) ) ;
#2 =( GEOMETRIC_REPRESENTATION_CONTEXT ( 3 ) GLOBAL_UNCERTAINTY_ASSIGNED_CONTEXT ( ( #273 ) ) GLOBAL_UNIT_ASSIGNED_CONTEXT ( ( #94, #10, #292 ) ) REPRESENTATION_CONTEXT ( 'NONE', 'WORKASPACE' ) );
#3 = PLANE ( 'NONE',  #114 ) ;
#4 = VERTEX_POINT ( 'NONE', #65 ) ;
#5 = FACE_OUTER_BOUND ( 'NONE', #59, .T. ) ;
#6 = DIRECTION ( 'NONE',  ( -3.491481338843133355E-15, 1.224646799147353454E-16, -1.000000000000000000 ) ) ;
#7 = ORIENTED_EDGE ( 'NONE', *, *, #233, .T. ) ;
#8 = DIRECTION ( 'NONE',  ( -3.491481338843133355E-15, 1.224646799147353454E-16, -1.000000000000000000 ) ) ;
#9 = APPROVAL_STATUS ( 'not_yet_approved' ) ;
#10 =( NAMED_UNIT ( * ) PLANE_ANGLE_UNIT ( ) SI_UNIT ( $, .RADIAN. ) );
#11 = PERSON_AND_ORGANIZATION_ROLE ( 'creator' ) ;
#12 = CC_DESIGN_APPROVAL ( #168, ( #36 ) ) ;
#13 = CC_DESIGN_PERSON_AND_ORGANIZATION_ASSIGNMENT ( #211, #111, ( #288 ) ) ;
#14 = CYLINDRICAL_SURFACE ( 'NONE', #181, 1.199999999999999289 ) ;
#15 = DATE_AND_TIME ( #104, #147 ) ;
#16 = CARTESIAN_POINT ( 'NONE',  ( 8.728703347107827472E-16, -3.061616997868381785E-17, 0.2499999999999998335 ) ) ;
#17 = APPROVAL_PERSON_ORGANIZATION ( #37, #298, #158 ) ;
#18 = EDGE_CURVE ( 'NONE', #188, #188, #264, .T. ) ;
#19 = FACE_OUTER_BOUND ( 'NONE', #212, .T. ) ;
#20 = ORIENTED_EDGE ( 'NONE', *, *, #233, .F. ) ;
#21 = FACE_OUTER_BOUND ( 'NONE', #93, .T. ) ;
#22 = APPROVAL_PERSON_ORGANIZATION ( #126, #168, #271 ) ;
#23 = FACE_OUTER_BOUND ( 'NONE', #171, .T. ) ;
#24 = VERTEX_POINT ( 'NONE', #29 ) ;
#25 = DIRECTION ( 'NONE',  ( -3.491481338843133355E-15, 1.224646799147353454E-16, -1.000000000000000000 ) ) ;
#26 = EDGE_CURVE ( 'NONE', #4, #4, #128, .T. ) ;
#27 = FACE_OUTER_BOUND ( 'NONE', #113, .T. ) ;
#28 = CARTESIAN_POINT ( 'NONE',  ( 8.728703347107827472E-16, -3.061616997868381785E-17, 0.2499999999999998335 ) ) ;
#29 = CARTESIAN_POINT ( 'NONE',  ( 3.491481338843133355E-14, 1.418499999999998762, 10.00000000000000000 ) ) ;
#30 = CIRCLE ( 'NONE', #162, 1.418500000000000094 ) ;
#31 = AXIS2_PLACEMENT_3D ( 'NONE', #218, #91, #196 ) ;
#32 = VERTEX_POINT ( 'NONE', #222 ) ;
#33 = CARTESIAN_POINT ( 'NONE',  ( 0.0000000000000000000, 0.0000000000000000000, 0.0000000000000000000 ) ) ;
#34 = CALENDAR_DATE ( 2021, 30, 11 ) ;
#35 = EDGE_LOOP ( 'NONE', ( #120 ) ) ;
#36 = PRODUCT_DEFINITION ( 'UNKNOWN', '', #282, #153 ) ;
#37 = PERSON_AND_ORGANIZATION ( #103, #301 ) ;
#38 = DIRECTION ( 'NONE',  ( 0.0000000000000000000, 1.000000000000000000, 0.0000000000000000000 ) ) ;
#39 = FACE_OUTER_BOUND ( 'NONE', #252, .T. ) ;
#40 = DIRECTION ( 'NONE',  ( -3.491481338843133355E-15, 1.224646799147353454E-16, -1.000000000000000000 ) ) ;
#41 = EDGE_LOOP ( 'NONE', ( #7 ) ) ;
#42 = CYLINDRICAL_SURFACE ( 'NONE', #269, 1.499999999999998668 ) ;
#43 = MANIFOLD_SOLID_BREP ( 'Corps-Déplacer/Copier1[2]', #96 ) ;
#44 = APPROVAL ( #9, 'UNSPECIFIED' ) ;
#45 = FACE_OUTER_BOUND ( 'NONE', #180, .T. ) ;
#46 = CIRCLE ( 'NONE', #206, 1.230384493975580140 ) ;
#47 = VERTEX_POINT ( 'NONE', #236 ) ;
#48 = CARTESIAN_POINT ( 'NONE',  ( -4.616787724848321623E-31, 1.619351146654463843E-32, -1.322300558644270706E-16 ) ) ;
#49 = PRODUCT_RELATED_PRODUCT_CATEGORY ( 'detail', '', ( #237 ) ) ;
#50 = CYLINDRICAL_SURFACE ( 'NONE', #278, 1.418499999999999428 ) ;
#51 = LOCAL_TIME ( 10, 57, 7.000000000000000000, #246 ) ;
#52 = DIRECTION ( 'NONE',  ( 3.491481338843133355E-15, -1.224646799147353454E-16, 1.000000000000000000 ) ) ;
#53 = CARTESIAN_POINT ( 'NONE',  ( 8.728703347107833388E-14, 1.199999999999997069, 25.00000000000000000 ) ) ;
#54 = CC_DESIGN_SECURITY_CLASSIFICATION ( #288, ( #282 ) ) ;
#55 = PERSON_AND_ORGANIZATION ( #103, #301 ) ;
#56 = CC_DESIGN_PERSON_AND_ORGANIZATION_ASSIGNMENT ( #55, #148, ( #36 ) ) ;
#57 = DIRECTION ( 'NONE',  ( 0.0000000000000000000, 1.000000000000000000, 0.0000000000000000000 ) ) ;
#58 = DIRECTION ( 'NONE',  ( 4.275831445896958607E-31, 1.000000000000000000, 1.224646799147353454E-16 ) ) ;
#59 = EDGE_LOOP ( 'NONE', ( #254 ) ) ;
#60 = EDGE_LOOP ( 'NONE', ( #185 ) ) ;
#61 = AXIS2_PLACEMENT_3D ( 'NONE', #28, #6, #164 ) ;
#62 = ORIENTED_EDGE ( 'NONE', *, *, #26, .T. ) ;
#63 = CC_DESIGN_PERSON_AND_ORGANIZATION_ASSIGNMENT ( #244, #102, ( #282 ) ) ;
#64 = CARTESIAN_POINT ( 'NONE',  ( 0.0000000000000000000, 0.0000000000000000000, 0.0000000000000000000 ) ) ;
#65 = CARTESIAN_POINT ( 'NONE',  ( 2.119329172677781757E-13, 1.499999999999994005, 60.69999999999999574 ) ) ;
#66 = CIRCLE ( 'NONE', #190, 1.274162432702594439 ) ;
#67 = CONICAL_SURFACE ( 'NONE', #245, 1.199999999999998179, 0.5235987755982931535 ) ;
#68 = CARTESIAN_POINT ( 'NONE',  ( 3.491481338843133355E-14, 1.063704625852921050E-32, 10.00000000000000000 ) ) ;
#69 = DIRECTION ( 'NONE',  ( 0.0000000000000000000, 1.000000000000000000, 0.0000000000000000000 ) ) ;
#70 = ORIENTED_EDGE ( 'NONE', *, *, #207, .F. ) ;
#71 = PLANE ( 'NONE',  #256 ) ;
#72 = AXIS2_PLACEMENT_3D ( 'NONE', #112, #257, #1 ) ;
#73 = AXIS2_PLACEMENT_3D ( 'NONE', #238, #116, #189 ) ;
#74 = APPROVAL_DATE_TIME ( #290, #44 ) ;
#75 = CLOSED_SHELL ( 'NONE', ( #95, #287, #77, #270, #151, #89, #193, #267 ) ) ;
#76 = CIRCLE ( 'NONE', #163, 1.418500000000000094 ) ;
#77 = ADVANCED_FACE ( 'NONE', ( #39, #130 ), #14, .T. ) ;
#78 = DATE_AND_TIME ( #122, #200 ) ;
#79 = CARTESIAN_POINT ( 'NONE',  ( 3.623617532978461367E-14, 1.199999999999996847, 10.37845310145380751 ) ) ;
#80 = DATE_AND_TIME ( #253, #132 ) ;
#81 = DIRECTION ( 'NONE',  ( 3.491481338843133355E-15, -1.224646799147353454E-16, 1.000000000000000000 ) ) ;
#82 = DIRECTION ( 'NONE',  ( -4.073168722708291858E-31, -1.000000000000000000, -1.146495071362888897E-16 ) ) ;
#83 = DIRECTION ( 'NONE',  ( -3.491481338843133355E-15, 1.224646799147353454E-16, -1.000000000000000000 ) ) ;
#84 = EDGE_LOOP ( 'NONE', ( #285 ) ) ;
#85 = FACE_OUTER_BOUND ( 'NONE', #84, .T. ) ;
#86 = AXIS2_PLACEMENT_3D ( 'NONE', #117, #235, #141 ) ;
#87 = DIRECTION ( 'NONE',  ( -3.491481338843133355E-15, 1.224646799147353454E-16, -1.000000000000000000 ) ) ;
#88 = FACE_OUTER_BOUND ( 'NONE', #60, .T. ) ;
#89 = ADVANCED_FACE ( 'NONE', ( #21, #160 ), #42, .T. ) ;
#90 = DIRECTION ( 'NONE',  ( 4.275831445896959482E-31, 1.000000000000000000, 1.224646799147353454E-16 ) ) ;
#91 = DIRECTION ( 'NONE',  ( -3.491481338843133355E-15, 1.224646799147353454E-16, -1.000000000000000000 ) ) ;
#92 = DIRECTION ( 'NONE',  ( -4.275831445896959482E-31, -1.000000000000000000, -1.224646799147353454E-16 ) ) ;
#93 = EDGE_LOOP ( 'NONE', ( #234 ) ) ;
#94 =( LENGTH_UNIT ( ) NAMED_UNIT ( * ) SI_UNIT ( .MILLI., .METRE. ) );
#95 = ADVANCED_FACE ( 'NONE', ( #85 ), #156, .F. ) ;
#96 = CLOSED_SHELL ( 'NONE', ( #247, #134, #258, #227 ) ) ;
#97 = COORDINATED_UNIVERSAL_TIME_OFFSET ( 1, 0, .AHEAD. ) ;
#98 = APPLICATION_PROTOCOL_DEFINITION ( 'international standard', 'config_control_design', 1994, #184 ) ;
#99 = CC_DESIGN_PERSON_AND_ORGANIZATION_ASSIGNMENT ( #291, #198, ( #237 ) ) ;
#100 = VERTEX_POINT ( 'NONE', #202 ) ;
#101 = AXIS2_PLACEMENT_3D ( 'NONE', #263, #262, #69 ) ;
#102 = PERSON_AND_ORGANIZATION_ROLE ( 'design_supplier' ) ;
#103 = PERSON ( 'UNSPECIFIED', 'UNSPECIFIED', 'UNSPECIFIED', ('UNSPECIFIED'), ('UNSPECIFIED'), ('UNSPECIFIED') ) ;
#104 = CALENDAR_DATE ( 2021, 30, 11 ) ;
#105 = DIRECTION ( 'NONE',  ( 0.0000000000000000000, 1.000000000000000000, 0.0000000000000000000 ) ) ;
#106 = AXIS2_PLACEMENT_3D ( 'NONE', #16, #81, #82 ) ;
#107 = LOCAL_TIME ( 10, 57, 7.000000000000000000, #97 ) ;
#108 = ORIENTED_EDGE ( 'NONE', *, *, #18, .T. ) ;
#109 = DIRECTION ( 'NONE',  ( -3.491481338843133355E-15, 1.224646799147353454E-16, -1.000000000000000000 ) ) ;
#110 = CC_DESIGN_DATE_AND_TIME_ASSIGNMENT ( #242, #149, ( #36 ) ) ;
#111 = PERSON_AND_ORGANIZATION_ROLE ( 'classification_officer' ) ;
#112 = CARTESIAN_POINT ( 'NONE',  ( 9.383831593535530478E-14, -3.291405054041850802E-15, 26.87636187293719559 ) ) ;
#113 = EDGE_LOOP ( 'NONE', ( #221 ) ) ;
#114 = AXIS2_PLACEMENT_3D ( 'NONE', #48, #52, #92 ) ;
#115 = FACE_BOUND ( 'NONE', #280, .T. ) ;
#116 = DIRECTION ( 'NONE',  ( 3.491481338843133355E-15, -1.224646799147353454E-16, 1.000000000000000000 ) ) ;
#117 = CARTESIAN_POINT ( 'NONE',  ( 2.129803616694311221E-13, 8.998558695971049855E-33, 61.00000000000000000 ) ) ;
#118 = CIRCLE ( 'NONE', #251, 1.200000000000001510 ) ;
#119 = DIRECTION ( 'NONE',  ( -3.491481338843133355E-15, 1.224646799147353454E-16, -1.000000000000000000 ) ) ;
#120 = ORIENTED_EDGE ( 'NONE', *, *, #213, .F. ) ;
#121 = EDGE_CURVE ( 'NONE', #47, #47, #46, .T. ) ;
#122 = CALENDAR_DATE ( 2021, 30, 11 ) ;
#123 = PRODUCT_DEFINITION_SHAPE ( 'NONE', 'NONE',  #36 ) ;
#124 = PERSON_AND_ORGANIZATION ( #103, #301 ) ;
#125 = AXIS2_PLACEMENT_3D ( 'NONE', #214, #8, #286 ) ;
#126 = PERSON_AND_ORGANIZATION ( #103, #301 ) ;
#127 = PERSON_AND_ORGANIZATION ( #103, #301 ) ;
#128 = CIRCLE ( 'NONE', #250, 1.500000000000001332 ) ;
#129 = TOROIDAL_SURFACE ( 'NONE', #125, 3.200000000000000178, 2.000000000000000000 ) ;
#130 = FACE_OUTER_BOUND ( 'NONE', #277, .T. ) ;
#131 = DIRECTION ( 'NONE',  ( -3.491481338843133355E-15, 1.224646799147353454E-16, -1.000000000000000000 ) ) ;
#132 = LOCAL_TIME ( 10, 57, 7.000000000000000000, #230 ) ;
#133 = CARTESIAN_POINT ( 'NONE',  ( 3.491481338843133355E-14, -1.224646799147353454E-15, 10.00000000000000000 ) ) ;
#134 = ADVANCED_FACE ( 'NONE', ( #187, #19 ), #146, .T. ) ;
#135 = COORDINATED_UNIVERSAL_TIME_OFFSET ( 1, 0, .AHEAD. ) ;
#136 = DIRECTION ( 'NONE',  ( 4.275831445896960358E-31, 1.000000000000000000, 1.224646799147353454E-16 ) ) ;
#137 = DIRECTION ( 'NONE',  ( 4.275831445896959482E-31, 1.000000000000000000, 1.224646799147353454E-16 ) ) ;
#138 = DIRECTION ( 'NONE',  ( 0.0000000000000000000, 1.000000000000000000, 0.0000000000000000000 ) ) ;
#139 = CARTESIAN_POINT ( 'NONE',  ( 2.129803616694311221E-13, -7.470345474798856659E-15, 61.00000000000000000 ) ) ;
#140 = FACE_OUTER_BOUND ( 'NONE', #229, .T. ) ;
#141 = DIRECTION ( 'NONE',  ( 4.275831445896959482E-31, 1.000000000000000000, 1.224646799147353454E-16 ) ) ;
#142 = EDGE_CURVE ( 'NONE', #24, #24, #30, .T. ) ;
#143 = MANIFOLD_SOLID_BREP ( 'Corps-Déplacer/Copier1[1]', #75 ) ;
#144 = COORDINATED_UNIVERSAL_TIME_OFFSET ( 1, 0, .AHEAD. ) ;
#145 = EDGE_CURVE ( 'NONE', #226, #226, #66, .T. ) ;
#146 = CONICAL_SURFACE ( 'NONE', #106, 1.418499999999998762, 0.5235987755982924874 ) ;
#147 = LOCAL_TIME ( 10, 57, 7.000000000000000000, #135 ) ;
#148 = PERSON_AND_ORGANIZATION_ROLE ( 'creator' ) ;
#149 = DATE_TIME_ROLE ( 'creation_date' ) ;
#150 = DIRECTION ( 'NONE',  ( 1.000000000000000000, 0.0000000000000000000, 0.0000000000000000000 ) ) ;
#151 = ADVANCED_FACE ( 'NONE', ( #231, #140 ), #243, .T. ) ;
#152 = ORIENTED_EDGE ( 'NONE', *, *, #207, .T. ) ;
#153 = DESIGN_CONTEXT ( 'detailed design', #184, 'design' ) ;
#154 = CARTESIAN_POINT ( 'NONE',  ( -9.233575449696643247E-31, 3.238702293308927686E-32, -2.644601117288541413E-16 ) ) ;
#155 = CC_DESIGN_DATE_AND_TIME_ASSIGNMENT ( #15, #204, ( #288 ) ) ;
#156 = PLANE ( 'NONE',  #223 ) ;
#157 = CIRCLE ( 'NONE', #31, 1.200000000000000178 ) ;
#158 = APPROVAL_ROLE ( '' ) ;
#159 = EDGE_LOOP ( 'NONE', ( #302 ) ) ;
#160 = FACE_OUTER_BOUND ( 'NONE', #209, .T. ) ;
#161 = DIRECTION ( 'NONE',  ( 0.0000000000000000000, 1.000000000000000000, 0.0000000000000000000 ) ) ;
#162 = AXIS2_PLACEMENT_3D ( 'NONE', #133, #272, #57 ) ;
#163 = AXIS2_PLACEMENT_3D ( 'NONE', #266, #25, #161 ) ;
#164 = DIRECTION ( 'NONE',  ( 4.073168722708291858E-31, 1.000000000000000000, 1.146495071362888897E-16 ) ) ;
#165 = DIRECTION ( 'NONE',  ( -4.275831445896959482E-31, -1.000000000000000000, -1.224646799147353454E-16 ) ) ;
#166 = APPLICATION_CONTEXT ( 'configuration controlled 3d designs of mechanical parts and assemblies' ) ;
#167 = FACE_OUTER_BOUND ( 'NONE', #178, .T. ) ;
#168 = APPROVAL ( #174, 'UNSPECIFIED' ) ;
#169 = CARTESIAN_POINT ( 'NONE',  ( 2.129803616694311221E-13, -7.470345474798856659E-15, 61.00000000000000000 ) ) ;
#170 = AXIS2_PLACEMENT_3D ( 'NONE', #33, #224, #150 ) ;
#171 = EDGE_LOOP ( 'NONE', ( #219 ) ) ;
#172 = VERTEX_POINT ( 'NONE', #177 ) ;
#173 = APPLICATION_PROTOCOL_DEFINITION ( 'international standard', 'config_control_design', 1994, #166 ) ;
#174 = APPROVAL_STATUS ( 'not_yet_approved' ) ;
#175 = CALENDAR_DATE ( 2021, 30, 11 ) ;
#176 = ADVANCED_BREP_SHAPE_REPRESENTATION ( '326992', ( #143, #43, #170 ), #2 ) ;
#177 = CARTESIAN_POINT ( 'NONE',  ( 8.728703347107833388E-16, 1.418499999999998762, 0.2500000000000000000 ) ) ;
#178 = EDGE_LOOP ( 'NONE', ( #197 ) ) ;
#179 = CC_DESIGN_PERSON_AND_ORGANIZATION_ASSIGNMENT ( #127, #11, ( #282 ) ) ;
#180 = EDGE_LOOP ( 'NONE', ( #70 ) ) ;
#181 = AXIS2_PLACEMENT_3D ( 'NONE', #232, #109, #137 ) ;
#182 = EDGE_LOOP ( 'NONE', ( #295 ) ) ;
#183 = DIRECTION ( 'NONE',  ( -4.275831445896959482E-31, -1.000000000000000000, -1.224646799147353454E-16 ) ) ;
#184 = APPLICATION_CONTEXT ( 'configuration controlled 3d designs of mechanical parts and assemblies' ) ;
#185 = ORIENTED_EDGE ( 'NONE', *, *, #26, .F. ) ;
#186 = APPROVAL_PERSON_ORGANIZATION ( #124, #44, #248 ) ;
#187 = FACE_BOUND ( 'NONE', #195, .T. ) ;
#188 = VERTEX_POINT ( 'NONE', #215 ) ;
#189 = DIRECTION ( 'NONE',  ( 0.0000000000000000000, -1.000000000000000000, 0.0000000000000000000 ) ) ;
#190 = AXIS2_PLACEMENT_3D ( 'NONE', #154, #274, #58 ) ;
#191 = CC_DESIGN_APPROVAL ( #298, ( #288 ) ) ;
#192 = DIRECTION ( 'NONE',  ( -3.491481338843133355E-15, 1.224646799147353454E-16, -1.000000000000000000 ) ) ;
#193 = ADVANCED_FACE ( 'NONE', ( #88, #115 ), #228, .T. ) ;
#194 = FACE_BOUND ( 'NONE', #41, .T. ) ;
#195 = EDGE_LOOP ( 'NONE', ( #289 ) ) ;
#196 = DIRECTION ( 'NONE',  ( 0.0000000000000000000, 1.000000000000000000, 0.0000000000000000000 ) ) ;
#197 = ORIENTED_EDGE ( 'NONE', *, *, #213, .T. ) ;
#198 = PERSON_AND_ORGANIZATION_ROLE ( 'design_owner' ) ;
#199 = APPROVAL_DATE_TIME ( #78, #168 ) ;
#200 = LOCAL_TIME ( 10, 57, 7.000000000000000000, #144 ) ;
#201 = EDGE_CURVE ( 'NONE', #172, #172, #217, .T. ) ;
#202 = CARTESIAN_POINT ( 'NONE',  ( 3.491481338843133355E-14, 1.418499999999998762, 10.00000000000000000 ) ) ;
#203 = ORIENTED_EDGE ( 'NONE', *, *, #201, .F. ) ;
#204 = DATE_TIME_ROLE ( 'classification_date' ) ;
#205 = CARTESIAN_POINT ( 'NONE',  ( 2.119329172677781757E-13, -7.433606070824434221E-15, 60.69999999999999574 ) ) ;
#206 = AXIS2_PLACEMENT_3D ( 'NONE', #300, #40, #105 ) ;
#207 = EDGE_CURVE ( 'NONE', #32, #32, #118, .T. ) ;
#208 = SECURITY_CLASSIFICATION_LEVEL ( 'unclassified' ) ;
#209 = EDGE_LOOP ( 'NONE', ( #62 ) ) ;
#210 = ORIENTED_EDGE ( 'NONE', *, *, #276, .T. ) ;
#211 = PERSON_AND_ORGANIZATION ( #103, #301 ) ;
#212 = EDGE_LOOP ( 'NONE', ( #259 ) ) ;
#213 = EDGE_CURVE ( 'NONE', #100, #100, #76, .T. ) ;
#214 = CARTESIAN_POINT ( 'NONE',  ( 8.728703347107833388E-14, -3.035766082959412415E-15, 25.00000000000000000 ) ) ;
#215 = CARTESIAN_POINT ( 'NONE',  ( 9.383831593535530478E-14, 1.499999999999992673, 26.87636187293719559 ) ) ;
#216 = FACE_OUTER_BOUND ( 'NONE', #35, .T. ) ;
#217 = CIRCLE ( 'NONE', #61, 1.418499999999998762 ) ;
#218 = CARTESIAN_POINT ( 'NONE',  ( 8.728703347107833388E-14, -3.061616997868383831E-15, 25.00000000000000000 ) ) ;
#219 = ORIENTED_EDGE ( 'NONE', *, *, #121, .T. ) ;
#220 = PLANE ( 'NONE',  #86 ) ;
#221 = ORIENTED_EDGE ( 'NONE', *, *, #142, .F. ) ;
#222 = CARTESIAN_POINT ( 'NONE',  ( 2.129803616694311221E-13, 1.199999999999993960, 61.00000000000000000 ) ) ;
#223 = AXIS2_PLACEMENT_3D ( 'NONE', #255, #303, #183 ) ;
#224 = DIRECTION ( 'NONE',  ( 0.0000000000000000000, 0.0000000000000000000, 1.000000000000000000 ) ) ;
#225 = MECHANICAL_CONTEXT ( 'NONE', #166, 'mechanical' ) ;
#226 = VERTEX_POINT ( 'NONE', #294 ) ;
#227 = ADVANCED_FACE ( 'NONE', ( #216 ), #71, .T. ) ;
#228 = CONICAL_SURFACE ( 'NONE', #239, 1.200000000000001510, 0.7853981633974453924 ) ;
#229 = EDGE_LOOP ( 'NONE', ( #108 ) ) ;
#230 = COORDINATED_UNIVERSAL_TIME_OFFSET ( 1, 0, .AHEAD. ) ;
#231 = FACE_BOUND ( 'NONE', #182, .T. ) ;
#232 = CARTESIAN_POINT ( 'NONE',  ( 0.0000000000000000000, 0.0000000000000000000, 0.0000000000000000000 ) ) ;
#233 = EDGE_CURVE ( 'NONE', #249, #249, #293, .T. ) ;
#234 = ORIENTED_EDGE ( 'NONE', *, *, #18, .F. ) ;
#235 = DIRECTION ( 'NONE',  ( -3.491481338843133355E-15, 1.224646799147353454E-16, -1.000000000000000000 ) ) ;
#236 = CARTESIAN_POINT ( 'NONE',  ( 8.849961221477469775E-14, 1.230384493975577254, 25.34729635533384595 ) ) ;
#237 = PRODUCT ( '326992', '326992', '', ( #225 ) ) ;
#238 = CARTESIAN_POINT ( 'NONE',  ( 9.383831593535530478E-14, -3.291405054041850802E-15, 26.87636187293719559 ) ) ;
#239 = AXIS2_PLACEMENT_3D ( 'NONE', #169, #192, #138 ) ;
#240 = DIRECTION ( 'NONE',  ( -3.491481338843133355E-15, 1.224646799147353454E-16, -1.000000000000000000 ) ) ;
#241 = FACE_OUTER_BOUND ( 'NONE', #159, .T. ) ;
#242 = DATE_AND_TIME ( #175, #51 ) ;
#243 = CONICAL_SURFACE ( 'NONE', #73, 1.499999999999996003, 0.1745329251994272579 ) ;
#244 = PERSON_AND_ORGANIZATION ( #103, #301 ) ;
#245 = AXIS2_PLACEMENT_3D ( 'NONE', #284, #87, #281 ) ;
#246 = COORDINATED_UNIVERSAL_TIME_OFFSET ( 1, 0, .AHEAD. ) ;
#247 = ADVANCED_FACE ( 'NONE', ( #5 ), #3, .F. ) ;
#248 = APPROVAL_ROLE ( '' ) ;
#249 = VERTEX_POINT ( 'NONE', #79 ) ;
#250 = AXIS2_PLACEMENT_3D ( 'NONE', #205, #83, #38 ) ;
#251 = AXIS2_PLACEMENT_3D ( 'NONE', #139, #240, #283 ) ;
#252 = EDGE_LOOP ( 'NONE', ( #20 ) ) ;
#253 = CALENDAR_DATE ( 2021, 30, 11 ) ;
#254 = ORIENTED_EDGE ( 'NONE', *, *, #145, .T. ) ;
#255 = CARTESIAN_POINT ( 'NONE',  ( 3.491481338843133355E-14, 1.063704625852921050E-32, 10.00000000000000000 ) ) ;
#256 = AXIS2_PLACEMENT_3D ( 'NONE', #68, #261, #165 ) ;
#257 = DIRECTION ( 'NONE',  ( -3.491481338843133355E-15, 1.224646799147353454E-16, -1.000000000000000000 ) ) ;
#258 = ADVANCED_FACE ( 'NONE', ( #260, #167 ), #50, .T. ) ;
#259 = ORIENTED_EDGE ( 'NONE', *, *, #201, .T. ) ;
#260 = FACE_OUTER_BOUND ( 'NONE', #275, .T. ) ;
#261 = DIRECTION ( 'NONE',  ( 3.491481338843133355E-15, -1.224646799147353454E-16, 1.000000000000000000 ) ) ;
#262 = DIRECTION ( 'NONE',  ( -3.491481338843133355E-15, 1.224646799147353454E-16, -1.000000000000000000 ) ) ;
#263 = CARTESIAN_POINT ( 'NONE',  ( 3.623617532978461367E-14, -1.270993937079632838E-15, 10.37845310145380751 ) ) ;
#264 = CIRCLE ( 'NONE', #72, 1.499999999999996003 ) ;
#265 = CC_DESIGN_APPROVAL ( #44, ( #282 ) ) ;
#266 = CARTESIAN_POINT ( 'NONE',  ( 3.491481338843133355E-14, -1.224646799147353454E-15, 10.00000000000000000 ) ) ;
#267 = ADVANCED_FACE ( 'NONE', ( #45 ), #220, .F. ) ;
#268 = VERTEX_POINT ( 'NONE', #53 ) ;
#269 = AXIS2_PLACEMENT_3D ( 'NONE', #297, #131, #136 ) ;
#270 = ADVANCED_FACE ( 'NONE', ( #241, #23 ), #129, .F. ) ;
#271 = APPROVAL_ROLE ( '' ) ;
#272 = DIRECTION ( 'NONE',  ( -3.491481338843133355E-15, 1.224646799147353454E-16, -1.000000000000000000 ) ) ;
#273 = UNCERTAINTY_MEASURE_WITH_UNIT (LENGTH_MEASURE( 1.000000000000000082E-05 ), #94, 'distance_accuracy_value', 'NONE');
#274 = DIRECTION ( 'NONE',  ( -3.491481338843133355E-15, 1.224646799147353454E-16, -1.000000000000000000 ) ) ;
#275 = EDGE_LOOP ( 'NONE', ( #203 ) ) ;
#276 = EDGE_CURVE ( 'NONE', #268, #268, #157, .T. ) ;
#277 = EDGE_LOOP ( 'NONE', ( #210 ) ) ;
#278 = AXIS2_PLACEMENT_3D ( 'NONE', #64, #119, #90 ) ;
#279 = SHAPE_DEFINITION_REPRESENTATION ( #123, #176 ) ;
#280 = EDGE_LOOP ( 'NONE', ( #152 ) ) ;
#281 = DIRECTION ( 'NONE',  ( 0.0000000000000000000, 1.000000000000000000, 0.0000000000000000000 ) ) ;
#282 = PRODUCT_DEFINITION_FORMATION_WITH_SPECIFIED_SOURCE ( 'ANY', '', #237, .NOT_KNOWN. ) ;
#283 = DIRECTION ( 'NONE',  ( 0.0000000000000000000, 1.000000000000000000, 0.0000000000000000000 ) ) ;
#284 = CARTESIAN_POINT ( 'NONE',  ( 3.623617532978461367E-14, -1.270993937079632838E-15, 10.37845310145380751 ) ) ;
#285 = ORIENTED_EDGE ( 'NONE', *, *, #142, .T. ) ;
#286 = DIRECTION ( 'NONE',  ( 4.275831445896958607E-31, 1.000000000000000000, 1.224646799147353454E-16 ) ) ;
#287 = ADVANCED_FACE ( 'NONE', ( #27, #194 ), #67, .T. ) ;
#288 = SECURITY_CLASSIFICATION ( '', '', #208 ) ;
#289 = ORIENTED_EDGE ( 'NONE', *, *, #145, .F. ) ;
#290 = DATE_AND_TIME ( #34, #107 ) ;
#291 = PERSON_AND_ORGANIZATION ( #103, #301 ) ;
#292 =( NAMED_UNIT ( * ) SI_UNIT ( $, .STERADIAN. ) SOLID_ANGLE_UNIT ( ) );
#293 = CIRCLE ( 'NONE', #101, 1.199999999999998179 ) ;
#294 = CARTESIAN_POINT ( 'NONE',  ( -3.785471652766321837E-31, 1.274162432702594439, -1.084202172485504187E-16 ) ) ;
#295 = ORIENTED_EDGE ( 'NONE', *, *, #121, .F. ) ;
#296 = APPROVAL_STATUS ( 'not_yet_approved' ) ;
#297 = CARTESIAN_POINT ( 'NONE',  ( 0.0000000000000000000, 0.0000000000000000000, 0.0000000000000000000 ) ) ;
#298 = APPROVAL ( #296, 'UNSPECIFIED' ) ;
#299 = APPROVAL_DATE_TIME ( #80, #298 ) ;
#300 = CARTESIAN_POINT ( 'NONE',  ( 8.849961221477469775E-14, -3.104148534859897544E-15, 25.34729635533384595 ) ) ;
#301 = ORGANIZATION ( 'UNSPECIFIED', 'UNSPECIFIED', '' ) ;
#302 = ORIENTED_EDGE ( 'NONE', *, *, #276, .F. ) ;
#303 = DIRECTION ( 'NONE',  ( 3.491481338843133355E-15, -1.224646799147353454E-16, 1.000000000000000000 ) ) ;
ENDSEC;
END-ISO-10303-21;
