ISO-10303-21;
HEADER;
FILE_DESCRIPTION (( 'STEP AP203' ),
    '1' );
FILE_NAME ('326991.step',
    '2021-11-30T09:57:06',
    ( '' ),
    ( '' ),
    'SwSTEP 2.0',
    'SolidWorks 2019',
    '' );
FILE_SCHEMA (( 'CONFIG_CONTROL_DESIGN' ));
ENDSEC;

DATA;
#1 = FACE_OUTER_BOUND ( 'NONE', #292, .T. ) ;
#2 = VERTEX_POINT ( 'NONE', #259 ) ;
#3 = CLOSED_SHELL ( 'NONE', ( #24, #8, #37, #63 ) ) ;
#4 = DIRECTION ( 'NONE',  ( -4.275831445896959482E-31, -1.000000000000000000, -1.224646799147353454E-16 ) ) ;
#5 = ORIENTED_EDGE ( 'NONE', *, *, #75, .F. ) ;
#6 = AXIS2_PLACEMENT_3D ( 'NONE', #288, #79, #159 ) ;
#7 = DIRECTION ( 'NONE',  ( -3.491481338843133355E-15, 1.224646799147353454E-16, -1.000000000000000000 ) ) ;
#8 = ADVANCED_FACE ( 'NONE', ( #130, #293 ), #44, .T. ) ;
#9 = CYLINDRICAL_SURFACE ( 'NONE', #39, 1.499999999999998668 ) ;
#10 = PERSON ( 'UNSPECIFIED', 'UNSPECIFIED', 'UNSPECIFIED', ('UNSPECIFIED'), ('UNSPECIFIED'), ('UNSPECIFIED') ) ;
#11 = DIRECTION ( 'NONE',  ( 4.161173808542825083E-31, 1.000000000000000000, 1.171266300848583419E-16 ) ) ;
#12 = DIRECTION ( 'NONE',  ( -3.491481338843133355E-15, 1.224646799147353454E-16, -1.000000000000000000 ) ) ;
#13 =( GEOMETRIC_REPRESENTATION_CONTEXT ( 3 ) GLOBAL_UNCERTAINTY_ASSIGNED_CONTEXT ( ( #213 ) ) GLOBAL_UNIT_ASSIGNED_CONTEXT ( ( #72, #301, #168 ) ) REPRESENTATION_CONTEXT ( 'NONE', 'WORKASPACE' ) );
#14 = ADVANCED_FACE ( 'NONE', ( #124, #195 ), #25, .T. ) ;
#15 = FACE_OUTER_BOUND ( 'NONE', #250, .T. ) ;
#16 = DIRECTION ( 'NONE',  ( 0.0000000000000000000, 1.000000000000000000, 0.0000000000000000000 ) ) ;
#17 = COORDINATED_UNIVERSAL_TIME_OFFSET ( 1, 0, .AHEAD. ) ;
#18 = ORIENTED_EDGE ( 'NONE', *, *, #149, .T. ) ;
#19 = PRODUCT_DEFINITION_FORMATION_WITH_SPECIFIED_SOURCE ( 'ANY', '', #303, .NOT_KNOWN. ) ;
#20 = APPLICATION_PROTOCOL_DEFINITION ( 'international standard', 'config_control_design', 1994, #167 ) ;
#21 = PERSON_AND_ORGANIZATION ( #10, #53 ) ;
#22 = DIRECTION ( 'NONE',  ( -4.161173808542825083E-31, -1.000000000000000000, -1.171266300848583419E-16 ) ) ;
#23 = DIRECTION ( 'NONE',  ( 0.0000000000000000000, 1.000000000000000000, 0.0000000000000000000 ) ) ;
#24 = ADVANCED_FACE ( 'NONE', ( #106 ), #128, .F. ) ;
#25 = CONICAL_SURFACE ( 'NONE', #143, 1.499999999999996003, 0.1745329251994266473 ) ;
#26 = ORIENTED_EDGE ( 'NONE', *, *, #178, .T. ) ;
#27 = CARTESIAN_POINT ( 'NONE',  ( 8.728703347107827472E-16, -3.061616997868381785E-17, 0.2499999999999998335 ) ) ;
#28 = MANIFOLD_SOLID_BREP ( 'Corps-Déplacer/Copier1[1]', #278 ) ;
#29 = APPROVAL_STATUS ( 'not_yet_approved' ) ;
#30 = EDGE_CURVE ( 'NONE', #87, #87, #137, .T. ) ;
#31 = EDGE_LOOP ( 'NONE', ( #271 ) ) ;
#32 = MANIFOLD_SOLID_BREP ( 'Corps-Déplacer/Copier1[2]', #3 ) ;
#33 = DIRECTION ( 'NONE',  ( -3.491481338843133355E-15, 1.224646799147353454E-16, -1.000000000000000000 ) ) ;
#34 = DIRECTION ( 'NONE',  ( 3.491481338843133355E-15, -1.224646799147353454E-16, 1.000000000000000000 ) ) ;
#35 = CARTESIAN_POINT ( 'NONE',  ( 2.119329172677781757E-13, -7.433606070824434221E-15, 60.69999999999999574 ) ) ;
#36 = LOCAL_TIME ( 10, 57, 6.000000000000000000, #55 ) ;
#37 = ADVANCED_FACE ( 'NONE', ( #1, #54 ), #105, .T. ) ;
#38 = DIRECTION ( 'NONE',  ( -4.275831445896959482E-31, -1.000000000000000000, -1.224646799147353454E-16 ) ) ;
#39 = AXIS2_PLACEMENT_3D ( 'NONE', #142, #237, #117 ) ;
#40 = FACE_OUTER_BOUND ( 'NONE', #220, .T. ) ;
#41 = EDGE_LOOP ( 'NONE', ( #217 ) ) ;
#42 = VERTEX_POINT ( 'NONE', #193 ) ;
#43 = VERTEX_POINT ( 'NONE', #96 ) ;
#44 = CONICAL_SURFACE ( 'NONE', #73, 1.388499999999998735, 0.5235987755982924874 ) ;
#45 = DIRECTION ( 'NONE',  ( 4.275831445896959482E-31, 1.000000000000000000, 1.224646799147353454E-16 ) ) ;
#46 = CARTESIAN_POINT ( 'NONE',  ( 8.728703347107833388E-14, 1.174999999999997158, 25.00000000000000000 ) ) ;
#47 = PLANE ( 'NONE',  #194 ) ;
#48 = CC_DESIGN_DATE_AND_TIME_ASSIGNMENT ( #51, #200, ( #175 ) ) ;
#49 = APPROVAL_STATUS ( 'not_yet_approved' ) ;
#50 = ORIENTED_EDGE ( 'NONE', *, *, #30, .T. ) ;
#51 = DATE_AND_TIME ( #88, #36 ) ;
#52 = AXIS2_PLACEMENT_3D ( 'NONE', #56, #201, #4 ) ;
#53 = ORGANIZATION ( 'UNSPECIFIED', 'UNSPECIFIED', '' ) ;
#54 = FACE_OUTER_BOUND ( 'NONE', #131, .T. ) ;
#55 = COORDINATED_UNIVERSAL_TIME_OFFSET ( 1, 0, .AHEAD. ) ;
#56 = CARTESIAN_POINT ( 'NONE',  ( -4.552650253159867481E-31, 1.596854749914536088E-32, -1.303930856657060572E-16 ) ) ;
#57 = APPROVAL_ROLE ( '' ) ;
#58 = FACE_OUTER_BOUND ( 'NONE', #140, .T. ) ;
#59 = DIRECTION ( 'NONE',  ( -3.491481338843133355E-15, 1.224646799147353454E-16, -1.000000000000000000 ) ) ;
#60 = CARTESIAN_POINT ( 'NONE',  ( 3.620593821442183232E-14, -1.269933361840907991E-15, 10.36979284741596352 ) ) ;
#61 = CIRCLE ( 'NONE', #223, 1.205384493975580007 ) ;
#62 = CC_DESIGN_APPROVAL ( #243, ( #118 ) ) ;
#63 = ADVANCED_FACE ( 'NONE', ( #170 ), #47, .T. ) ;
#64 = DIRECTION ( 'NONE',  ( -3.491481338843133355E-15, 1.224646799147353454E-16, -1.000000000000000000 ) ) ;
#65 = ORIENTED_EDGE ( 'NONE', *, *, #221, .F. ) ;
#66 = CYLINDRICAL_SURFACE ( 'NONE', #246, 1.174999999999999378 ) ;
#67 = ORIENTED_EDGE ( 'NONE', *, *, #178, .F. ) ;
#68 = AXIS2_PLACEMENT_3D ( 'NONE', #60, #12, #116 ) ;
#69 = APPROVAL_ROLE ( '' ) ;
#70 = EDGE_CURVE ( 'NONE', #2, #2, #112, .T. ) ;
#71 = PERSON_AND_ORGANIZATION_ROLE ( 'design_owner' ) ;
#72 =( LENGTH_UNIT ( ) NAMED_UNIT ( * ) SI_UNIT ( .MILLI., .METRE. ) );
#73 = AXIS2_PLACEMENT_3D ( 'NONE', #27, #226, #22 ) ;
#74 = CARTESIAN_POINT ( 'NONE',  ( 3.620593821442183232E-14, 1.174999999999996936, 10.36979284741596352 ) ) ;
#75 = EDGE_CURVE ( 'NONE', #42, #42, #270, .T. ) ;
#76 = EDGE_LOOP ( 'NONE', ( #67 ) ) ;
#77 = DATE_TIME_ROLE ( 'creation_date' ) ;
#78 = ORIENTED_EDGE ( 'NONE', *, *, #98, .F. ) ;
#79 = DIRECTION ( 'NONE',  ( -3.491481338843133355E-15, 1.224646799147353454E-16, -1.000000000000000000 ) ) ;
#80 = PERSON_AND_ORGANIZATION ( #10, #53 ) ;
#81 = LOCAL_TIME ( 10, 57, 6.000000000000000000, #279 ) ;
#82 = AXIS2_PLACEMENT_3D ( 'NONE', #280, #211, #298 ) ;
#83 = ORIENTED_EDGE ( 'NONE', *, *, #70, .F. ) ;
#84 = CALENDAR_DATE ( 2021, 30, 11 ) ;
#85 = DIRECTION ( 'NONE',  ( -3.491481338843133355E-15, 1.224646799147353454E-16, -1.000000000000000000 ) ) ;
#86 = PERSON_AND_ORGANIZATION ( #10, #53 ) ;
#87 = VERTEX_POINT ( 'NONE', #218 ) ;
#88 = CALENDAR_DATE ( 2021, 30, 11 ) ;
#89 = CONICAL_SURFACE ( 'NONE', #258, 1.200000000000001510, 0.7853981633974453924 ) ;
#90 = PRODUCT_RELATED_PRODUCT_CATEGORY ( 'detail', '', ( #303 ) ) ;
#91 = FACE_BOUND ( 'NONE', #189, .T. ) ;
#92 = AXIS2_PLACEMENT_3D ( 'NONE', #135, #136, #113 ) ;
#93 = CARTESIAN_POINT ( 'NONE',  ( 3.491481338843133355E-14, 1.041208229112993158E-32, 10.00000000000000000 ) ) ;
#94 = EDGE_LOOP ( 'NONE', ( #273 ) ) ;
#95 = CARTESIAN_POINT ( 'NONE',  ( 2.119329172677781757E-13, 1.499999999999994005, 60.69999999999999574 ) ) ;
#96 = CARTESIAN_POINT ( 'NONE',  ( 9.433334530136822643E-14, 1.499999999999992673, 27.01814391842764707 ) ) ;
#97 = EDGE_LOOP ( 'NONE', ( #83 ) ) ;
#98 = EDGE_CURVE ( 'NONE', #260, #260, #300, .T. ) ;
#99 = CALENDAR_DATE ( 2021, 30, 11 ) ;
#100 = ORIENTED_EDGE ( 'NONE', *, *, #221, .T. ) ;
#101 = AXIS2_PLACEMENT_3D ( 'NONE', #93, #34, #38 ) ;
#102 = CARTESIAN_POINT ( 'NONE',  ( -3.785471652766322713E-31, 1.244162432702594190, -1.084202172485504681E-16 ) ) ;
#103 = CARTESIAN_POINT ( 'NONE',  ( 3.491481338843133355E-14, -1.224646799147353454E-15, 10.00000000000000000 ) ) ;
#104 = SECURITY_CLASSIFICATION_LEVEL ( 'unclassified' ) ;
#105 = CYLINDRICAL_SURFACE ( 'NONE', #154, 1.388499999999999401 ) ;
#106 = FACE_OUTER_BOUND ( 'NONE', #174, .T. ) ;
#107 = DATE_AND_TIME ( #84, #81 ) ;
#108 = CARTESIAN_POINT ( 'NONE',  ( 9.433334530136822643E-14, -3.308768346860495140E-15, 27.01814391842764707 ) ) ;
#109 = DIRECTION ( 'NONE',  ( -3.491481338843133355E-15, 1.224646799147353454E-16, -1.000000000000000000 ) ) ;
#110 = CC_DESIGN_PERSON_AND_ORGANIZATION_ASSIGNMENT ( #80, #269, ( #175 ) ) ;
#111 = CARTESIAN_POINT ( 'NONE',  ( 8.849961221477468513E-14, -3.104148534859897150E-15, 25.34729635533384240 ) ) ;
#112 = CIRCLE ( 'NONE', #252, 1.388500000000000068 ) ;
#113 = DIRECTION ( 'NONE',  ( 0.0000000000000000000, 1.000000000000000000, 0.0000000000000000000 ) ) ;
#114 = CC_DESIGN_SECURITY_CLASSIFICATION ( #175, ( #19 ) ) ;
#115 = CONICAL_SURFACE ( 'NONE', #68, 1.174999999999998268, 0.5235987755982934866 ) ;
#116 = DIRECTION ( 'NONE',  ( 0.0000000000000000000, 1.000000000000000000, 0.0000000000000000000 ) ) ;
#117 = DIRECTION ( 'NONE',  ( 4.275831445896960358E-31, 1.000000000000000000, 1.224646799147353454E-16 ) ) ;
#118 = PRODUCT_DEFINITION ( 'UNKNOWN', '', #19, #284 ) ;
#119 = VERTEX_POINT ( 'NONE', #165 ) ;
#120 = CIRCLE ( 'NONE', #291, 1.175000000000000266 ) ;
#121 = CC_DESIGN_APPROVAL ( #133, ( #19 ) ) ;
#122 = CIRCLE ( 'NONE', #228, 1.244162432702594190 ) ;
#123 = PERSON_AND_ORGANIZATION ( #10, #53 ) ;
#124 = FACE_BOUND ( 'NONE', #41, .T. ) ;
#125 = PERSON_AND_ORGANIZATION ( #10, #53 ) ;
#126 = EDGE_LOOP ( 'NONE', ( #65 ) ) ;
#127 = AXIS2_PLACEMENT_3D ( 'NONE', #227, #7, #23 ) ;
#128 = PLANE ( 'NONE',  #52 ) ;
#129 = CC_DESIGN_DATE_AND_TIME_ASSIGNMENT ( #196, #77, ( #118 ) ) ;
#130 = FACE_BOUND ( 'NONE', #76, .T. ) ;
#131 = EDGE_LOOP ( 'NONE', ( #169 ) ) ;
#132 = DIRECTION ( 'NONE',  ( 0.0000000000000000000, 1.000000000000000000, 0.0000000000000000000 ) ) ;
#133 = APPROVAL ( #49, 'UNSPECIFIED' ) ;
#134 = PERSON_AND_ORGANIZATION ( #10, #53 ) ;
#135 = CARTESIAN_POINT ( 'NONE',  ( 3.620593821442183232E-14, -1.269933361840907991E-15, 10.36979284741596352 ) ) ;
#136 = DIRECTION ( 'NONE',  ( -3.491481338843133355E-15, 1.224646799147353454E-16, -1.000000000000000000 ) ) ;
#137 = CIRCLE ( 'NONE', #127, 1.200000000000001510 ) ;
#138 = PLANE ( 'NONE',  #82 ) ;
#139 = TOROIDAL_SURFACE ( 'NONE', #206, 3.175000000000000266, 2.000000000000000888 ) ;
#140 = EDGE_LOOP ( 'NONE', ( #78 ) ) ;
#141 = ADVANCED_FACE ( 'NONE', ( #277, #91 ), #115, .T. ) ;
#142 = CARTESIAN_POINT ( 'NONE',  ( 0.0000000000000000000, 0.0000000000000000000, 0.0000000000000000000 ) ) ;
#143 = AXIS2_PLACEMENT_3D ( 'NONE', #108, #263, #266 ) ;
#144 = APPLICATION_PROTOCOL_DEFINITION ( 'international standard', 'config_control_design', 1994, #182 ) ;
#145 = ORIENTED_EDGE ( 'NONE', *, *, #98, .T. ) ;
#146 = DIRECTION ( 'NONE',  ( -3.491481338843133355E-15, 1.224646799147353454E-16, -1.000000000000000000 ) ) ;
#147 = APPROVAL_ROLE ( '' ) ;
#148 = EDGE_LOOP ( 'NONE', ( #5 ) ) ;
#149 = EDGE_CURVE ( 'NONE', #265, #265, #256, .T. ) ;
#150 = DIRECTION ( 'NONE',  ( -3.491481338843133355E-15, 1.224646799147353454E-16, -1.000000000000000000 ) ) ;
#151 = ORIENTED_EDGE ( 'NONE', *, *, #186, .T. ) ;
#152 = ADVANCED_FACE ( 'NONE', ( #205 ), #138, .F. ) ;
#153 = FACE_BOUND ( 'NONE', #172, .T. ) ;
#154 = AXIS2_PLACEMENT_3D ( 'NONE', #203, #146, #45 ) ;
#155 = DIRECTION ( 'NONE',  ( -3.491481338843133355E-15, 1.224646799147353454E-16, -1.000000000000000000 ) ) ;
#156 = CARTESIAN_POINT ( 'NONE',  ( -9.105300506319734961E-31, 3.193709499829072177E-32, -2.607861713314121144E-16 ) ) ;
#157 = CIRCLE ( 'NONE', #261, 1.499999999999996003 ) ;
#158 = APPROVAL_PERSON_ORGANIZATION ( #274, #299, #57 ) ;
#159 = DIRECTION ( 'NONE',  ( 0.0000000000000000000, 1.000000000000000000, 0.0000000000000000000 ) ) ;
#160 = CC_DESIGN_PERSON_AND_ORGANIZATION_ASSIGNMENT ( #86, #180, ( #19 ) ) ;
#161 = EDGE_LOOP ( 'NONE', ( #236 ) ) ;
#162 = CARTESIAN_POINT ( 'NONE',  ( 0.0000000000000000000, 0.0000000000000000000, 0.0000000000000000000 ) ) ;
#163 = CIRCLE ( 'NONE', #92, 1.174999999999998268 ) ;
#164 = EDGE_LOOP ( 'NONE', ( #244 ) ) ;
#165 = CARTESIAN_POINT ( 'NONE',  ( 8.849961221477468513E-14, 1.205384493975576898, 25.34729635533384240 ) ) ;
#166 = PERSON_AND_ORGANIZATION_ROLE ( 'creator' ) ;
#167 = APPLICATION_CONTEXT ( 'configuration controlled 3d designs of mechanical parts and assemblies' ) ;
#168 =( NAMED_UNIT ( * ) SI_UNIT ( $, .STERADIAN. ) SOLID_ANGLE_UNIT ( ) );
#169 = ORIENTED_EDGE ( 'NONE', *, *, #70, .T. ) ;
#170 = FACE_OUTER_BOUND ( 'NONE', #97, .T. ) ;
#171 = PERSON_AND_ORGANIZATION ( #10, #53 ) ;
#172 = EDGE_LOOP ( 'NONE', ( #50 ) ) ;
#173 = CC_DESIGN_APPROVAL ( #299, ( #175 ) ) ;
#174 = EDGE_LOOP ( 'NONE', ( #26 ) ) ;
#175 = SECURITY_CLASSIFICATION ( '', '', #104 ) ;
#176 = DATE_AND_TIME ( #214, #255 ) ;
#177 = ORIENTED_EDGE ( 'NONE', *, *, #290, .T. ) ;
#178 = EDGE_CURVE ( 'NONE', #190, #190, #122, .T. ) ;
#179 = DIRECTION ( 'NONE',  ( -3.491481338843133355E-15, 1.224646799147353454E-16, -1.000000000000000000 ) ) ;
#180 = PERSON_AND_ORGANIZATION_ROLE ( 'design_supplier' ) ;
#181 = DIRECTION ( 'NONE',  ( 0.0000000000000000000, 1.000000000000000000, 0.0000000000000000000 ) ) ;
#182 = APPLICATION_CONTEXT ( 'configuration controlled 3d designs of mechanical parts and assemblies' ) ;
#183 = APPROVAL_DATE_TIME ( #176, #133 ) ;
#184 = DIRECTION ( 'NONE',  ( -3.491481338843133355E-15, 1.224646799147353454E-16, -1.000000000000000000 ) ) ;
#185 = DIRECTION ( 'NONE',  ( 0.0000000000000000000, 1.000000000000000000, 0.0000000000000000000 ) ) ;
#186 = EDGE_CURVE ( 'NONE', #192, #192, #120, .T. ) ;
#187 = CC_DESIGN_PERSON_AND_ORGANIZATION_ASSIGNMENT ( #125, #166, ( #118 ) ) ;
#188 = DIRECTION ( 'NONE',  ( 4.275831445896959482E-31, 1.000000000000000000, 1.224646799147353454E-16 ) ) ;
#189 = EDGE_LOOP ( 'NONE', ( #225 ) ) ;
#190 = VERTEX_POINT ( 'NONE', #102 ) ;
#191 = CARTESIAN_POINT ( 'NONE',  ( 8.728703347107833388E-16, 1.388499999999998735, 0.2500000000000000000 ) ) ;
#192 = VERTEX_POINT ( 'NONE', #46 ) ;
#193 = CARTESIAN_POINT ( 'NONE',  ( 3.491481338843133355E-14, 1.388499999999998735, 10.00000000000000000 ) ) ;
#194 = AXIS2_PLACEMENT_3D ( 'NONE', #199, #289, #224 ) ;
#195 = FACE_OUTER_BOUND ( 'NONE', #242, .T. ) ;
#196 = DATE_AND_TIME ( #222, #202 ) ;
#197 = CC_DESIGN_PERSON_AND_ORGANIZATION_ASSIGNMENT ( #134, #272, ( #19 ) ) ;
#198 = DIRECTION ( 'NONE',  ( 0.0000000000000000000, 1.000000000000000000, 0.0000000000000000000 ) ) ;
#199 = CARTESIAN_POINT ( 'NONE',  ( 3.491481338843133355E-14, 1.041208229112993158E-32, 10.00000000000000000 ) ) ;
#200 = DATE_TIME_ROLE ( 'classification_date' ) ;
#201 = DIRECTION ( 'NONE',  ( 3.491481338843133355E-15, -1.224646799147353454E-16, 1.000000000000000000 ) ) ;
#202 = LOCAL_TIME ( 10, 57, 6.000000000000000000, #238 ) ;
#203 = CARTESIAN_POINT ( 'NONE',  ( 0.0000000000000000000, 0.0000000000000000000, 0.0000000000000000000 ) ) ;
#204 = DIRECTION ( 'NONE',  ( 0.0000000000000000000, 1.000000000000000000, 0.0000000000000000000 ) ) ;
#205 = FACE_OUTER_BOUND ( 'NONE', #161, .T. ) ;
#206 = AXIS2_PLACEMENT_3D ( 'NONE', #235, #257, #188 ) ;
#207 = ADVANCED_FACE ( 'NONE', ( #253 ), #254, .F. ) ;
#208 = CARTESIAN_POINT ( 'NONE',  ( 9.433334530136822643E-14, -3.308768346860495140E-15, 27.01814391842764707 ) ) ;
#209 = EDGE_CURVE ( 'NONE', #285, #285, #163, .T. ) ;
#210 = ADVANCED_BREP_SHAPE_REPRESENTATION ( '326991', ( #28, #32, #281 ), #13 ) ;
#211 = DIRECTION ( 'NONE',  ( -3.491481338843133355E-15, 1.224646799147353454E-16, -1.000000000000000000 ) ) ;
#212 = CARTESIAN_POINT ( 'NONE',  ( 8.728703347107827472E-16, -3.061616997868381785E-17, 0.2499999999999998335 ) ) ;
#213 = UNCERTAINTY_MEASURE_WITH_UNIT (LENGTH_MEASURE( 1.000000000000000082E-05 ), #72, 'distance_accuracy_value', 'NONE');
#214 = CALENDAR_DATE ( 2021, 30, 11 ) ;
#215 = APPROVAL_PERSON_ORGANIZATION ( #171, #133, #147 ) ;
#216 = AXIS2_PLACEMENT_3D ( 'NONE', #212, #59, #11 ) ;
#217 = ORIENTED_EDGE ( 'NONE', *, *, #290, .F. ) ;
#218 = CARTESIAN_POINT ( 'NONE',  ( 2.129803616694311221E-13, 1.199999999999993960, 61.00000000000000000 ) ) ;
#219 = APPROVAL_STATUS ( 'not_yet_approved' ) ;
#220 = EDGE_LOOP ( 'NONE', ( #145 ) ) ;
#221 = EDGE_CURVE ( 'NONE', #43, #43, #157, .T. ) ;
#222 = CALENDAR_DATE ( 2021, 30, 11 ) ;
#223 = AXIS2_PLACEMENT_3D ( 'NONE', #111, #109, #204 ) ;
#224 = DIRECTION ( 'NONE',  ( -4.275831445896959482E-31, -1.000000000000000000, -1.224646799147353454E-16 ) ) ;
#225 = ORIENTED_EDGE ( 'NONE', *, *, #209, .T. ) ;
#226 = DIRECTION ( 'NONE',  ( 3.491481338843133355E-15, -1.224646799147353454E-16, 1.000000000000000000 ) ) ;
#227 = CARTESIAN_POINT ( 'NONE',  ( 2.129803616694311221E-13, -7.470345474798856659E-15, 61.00000000000000000 ) ) ;
#228 = AXIS2_PLACEMENT_3D ( 'NONE', #156, #155, #275 ) ;
#229 = FACE_OUTER_BOUND ( 'NONE', #247, .T. ) ;
#230 = APPROVAL_DATE_TIME ( #107, #299 ) ;
#231 = FACE_OUTER_BOUND ( 'NONE', #126, .T. ) ;
#232 = ADVANCED_FACE ( 'NONE', ( #233, #229 ), #139, .F. ) ;
#233 = FACE_OUTER_BOUND ( 'NONE', #164, .T. ) ;
#234 = AXIS2_PLACEMENT_3D ( 'NONE', #35, #184, #181 ) ;
#235 = CARTESIAN_POINT ( 'NONE',  ( 8.728703347107833388E-14, -3.035766082959412415E-15, 25.00000000000000000 ) ) ;
#236 = ORIENTED_EDGE ( 'NONE', *, *, #30, .F. ) ;
#237 = DIRECTION ( 'NONE',  ( -3.491481338843133355E-15, 1.224646799147353454E-16, -1.000000000000000000 ) ) ;
#238 = COORDINATED_UNIVERSAL_TIME_OFFSET ( 1, 0, .AHEAD. ) ;
#239 = CARTESIAN_POINT ( 'NONE',  ( 0.0000000000000000000, 0.0000000000000000000, 0.0000000000000000000 ) ) ;
#240 = LOCAL_TIME ( 10, 57, 6.000000000000000000, #17 ) ;
#241 = MECHANICAL_CONTEXT ( 'NONE', #182, 'mechanical' ) ;
#242 = EDGE_LOOP ( 'NONE', ( #100 ) ) ;
#243 = APPROVAL ( #219, 'UNSPECIFIED' ) ;
#244 = ORIENTED_EDGE ( 'NONE', *, *, #186, .F. ) ;
#245 = COORDINATED_UNIVERSAL_TIME_OFFSET ( 1, 0, .AHEAD. ) ;
#246 = AXIS2_PLACEMENT_3D ( 'NONE', #162, #85, #295 ) ;
#247 = EDGE_LOOP ( 'NONE', ( #177 ) ) ;
#248 = ORIENTED_EDGE ( 'NONE', *, *, #149, .F. ) ;
#249 = SHAPE_DEFINITION_REPRESENTATION ( #264, #210 ) ;
#250 = EDGE_LOOP ( 'NONE', ( #151 ) ) ;
#251 = CARTESIAN_POINT ( 'NONE',  ( 2.129803616694311221E-13, -7.470345474798856659E-15, 61.00000000000000000 ) ) ;
#252 = AXIS2_PLACEMENT_3D ( 'NONE', #103, #150, #198 ) ;
#253 = FACE_OUTER_BOUND ( 'NONE', #94, .T. ) ;
#254 = PLANE ( 'NONE',  #101 ) ;
#255 = LOCAL_TIME ( 10, 57, 6.000000000000000000, #245 ) ;
#256 = CIRCLE ( 'NONE', #216, 1.388499999999998735 ) ;
#257 = DIRECTION ( 'NONE',  ( -3.491481338843133355E-15, 1.224646799147353454E-16, -1.000000000000000000 ) ) ;
#258 = AXIS2_PLACEMENT_3D ( 'NONE', #251, #33, #132 ) ;
#259 = CARTESIAN_POINT ( 'NONE',  ( 3.491481338843133355E-14, 1.388499999999998735, 10.00000000000000000 ) ) ;
#260 = VERTEX_POINT ( 'NONE', #95 ) ;
#261 = AXIS2_PLACEMENT_3D ( 'NONE', #208, #64, #16 ) ;
#262 = ADVANCED_FACE ( 'NONE', ( #296, #15 ), #66, .T. ) ;
#263 = DIRECTION ( 'NONE',  ( 3.491481338843133355E-15, -1.224646799147353454E-16, 1.000000000000000000 ) ) ;
#264 = PRODUCT_DEFINITION_SHAPE ( 'NONE', 'NONE',  #118 ) ;
#265 = VERTEX_POINT ( 'NONE', #191 ) ;
#266 = DIRECTION ( 'NONE',  ( 0.0000000000000000000, -1.000000000000000000, 0.0000000000000000000 ) ) ;
#267 = DIRECTION ( 'NONE',  ( 1.000000000000000000, 0.0000000000000000000, 0.0000000000000000000 ) ) ;
#268 = EDGE_LOOP ( 'NONE', ( #18 ) ) ;
#269 = PERSON_AND_ORGANIZATION_ROLE ( 'classification_officer' ) ;
#270 = CIRCLE ( 'NONE', #6, 1.388500000000000068 ) ;
#271 = ORIENTED_EDGE ( 'NONE', *, *, #209, .F. ) ;
#272 = PERSON_AND_ORGANIZATION_ROLE ( 'creator' ) ;
#273 = ORIENTED_EDGE ( 'NONE', *, *, #75, .T. ) ;
#274 = PERSON_AND_ORGANIZATION ( #10, #53 ) ;
#275 = DIRECTION ( 'NONE',  ( 4.275831445896960358E-31, 1.000000000000000000, 1.224646799147353454E-16 ) ) ;
#276 = ADVANCED_FACE ( 'NONE', ( #231, #40 ), #9, .T. ) ;
#277 = FACE_OUTER_BOUND ( 'NONE', #148, .T. ) ;
#278 = CLOSED_SHELL ( 'NONE', ( #207, #141, #262, #232, #14, #276, #283, #152 ) ) ;
#279 = COORDINATED_UNIVERSAL_TIME_OFFSET ( 1, 0, .AHEAD. ) ;
#280 = CARTESIAN_POINT ( 'NONE',  ( 2.129803616694311221E-13, 8.998558695971049855E-33, 61.00000000000000000 ) ) ;
#281 = AXIS2_PLACEMENT_3D ( 'NONE', #239, #287, #267 ) ;
#282 = APPROVAL_PERSON_ORGANIZATION ( #123, #243, #69 ) ;
#283 = ADVANCED_FACE ( 'NONE', ( #58, #153 ), #89, .T. ) ;
#284 = DESIGN_CONTEXT ( 'detailed design', #167, 'design' ) ;
#285 = VERTEX_POINT ( 'NONE', #74 ) ;
#286 = APPROVAL_DATE_TIME ( #302, #243 ) ;
#287 = DIRECTION ( 'NONE',  ( 0.0000000000000000000, 0.0000000000000000000, 1.000000000000000000 ) ) ;
#288 = CARTESIAN_POINT ( 'NONE',  ( 3.491481338843133355E-14, -1.224646799147353454E-15, 10.00000000000000000 ) ) ;
#289 = DIRECTION ( 'NONE',  ( 3.491481338843133355E-15, -1.224646799147353454E-16, 1.000000000000000000 ) ) ;
#290 = EDGE_CURVE ( 'NONE', #119, #119, #61, .T. ) ;
#291 = AXIS2_PLACEMENT_3D ( 'NONE', #297, #179, #185 ) ;
#292 = EDGE_LOOP ( 'NONE', ( #248 ) ) ;
#293 = FACE_OUTER_BOUND ( 'NONE', #268, .T. ) ;
#294 = CC_DESIGN_PERSON_AND_ORGANIZATION_ASSIGNMENT ( #21, #71, ( #303 ) ) ;
#295 = DIRECTION ( 'NONE',  ( 4.275831445896959482E-31, 1.000000000000000000, 1.224646799147353454E-16 ) ) ;
#296 = FACE_OUTER_BOUND ( 'NONE', #31, .T. ) ;
#297 = CARTESIAN_POINT ( 'NONE',  ( 8.728703347107833388E-14, -3.061616997868383831E-15, 25.00000000000000000 ) ) ;
#298 = DIRECTION ( 'NONE',  ( 4.275831445896959482E-31, 1.000000000000000000, 1.224646799147353454E-16 ) ) ;
#299 = APPROVAL ( #29, 'UNSPECIFIED' ) ;
#300 = CIRCLE ( 'NONE', #234, 1.500000000000001332 ) ;
#301 =( NAMED_UNIT ( * ) PLANE_ANGLE_UNIT ( ) SI_UNIT ( $, .RADIAN. ) );
#302 = DATE_AND_TIME ( #99, #240 ) ;
#303 = PRODUCT ( '326991', '326991', '', ( #241 ) ) ;
ENDSEC;
END-ISO-10303-21;
