ISO-10303-21;
HEADER;
FILE_DESCRIPTION (( 'STEP AP203' ),
    '1' );
FILE_NAME ('326990.step',
    '2021-11-30T09:57:05',
    ( '' ),
    ( '' ),
    'SwSTEP 2.0',
    'SolidWorks 2019',
    '' );
FILE_SCHEMA (( 'CONFIG_CONTROL_DESIGN' ));
ENDSEC;

DATA;
#1 = ORIENTED_EDGE ( 'NONE', *, *, #189, .T. ) ;
#2 = APPROVAL_STATUS ( 'not_yet_approved' ) ;
#3 = ADVANCED_FACE ( 'NONE', ( #29, #141 ), #214, .T. ) ;
#4 = CONICAL_SURFACE ( 'NONE', #290, 1.200000000000001510, 0.7853981633974453924 ) ;
#5 = CARTESIAN_POINT ( 'NONE',  ( 8.728703347107827472E-16, -3.061616997868381785E-17, 0.2499999999999998335 ) ) ;
#6 = DIRECTION ( 'NONE',  ( 4.275831445896959482E-31, 1.000000000000000000, 1.224646799147353700E-16 ) ) ;
#7 = PLANE ( 'NONE',  #183 ) ;
#8 = DESIGN_CONTEXT ( 'detailed design', #11, 'design' ) ;
#9 = CARTESIAN_POINT ( 'NONE',  ( 8.728703347107833388E-14, -3.061616997868383831E-15, 25.00000000000000000 ) ) ;
#10 = LOCAL_TIME ( 10, 57, 5.000000000000000000, #84 ) ;
#11 = APPLICATION_CONTEXT ( 'configuration controlled 3d designs of mechanical parts and assemblies' ) ;
#12 = DIRECTION ( 'NONE',  ( -3.491481338843133355E-15, 1.224646799147353454E-16, -1.000000000000000000 ) ) ;
#13 = DIRECTION ( 'NONE',  ( 4.275831445896960358E-31, 1.000000000000000000, 1.224646799147353454E-16 ) ) ;
#14 = ADVANCED_FACE ( 'NONE', ( #100, #116 ), #169, .T. ) ;
#15 = PLANE ( 'NONE',  #175 ) ;
#16 = PERSON_AND_ORGANIZATION_ROLE ( 'design_owner' ) ;
#17 = EDGE_LOOP ( 'NONE', ( #51 ) ) ;
#18 = DATE_AND_TIME ( #129, #296 ) ;
#19 = CARTESIAN_POINT ( 'NONE',  ( 8.728703347107833388E-14, 1.174999999999997158, 25.00000000000000000 ) ) ;
#20 = PERSON_AND_ORGANIZATION ( #228, #161 ) ;
#21 = PERSON_AND_ORGANIZATION ( #228, #161 ) ;
#22 = EDGE_LOOP ( 'NONE', ( #85 ) ) ;
#23 = CC_DESIGN_PERSON_AND_ORGANIZATION_ASSIGNMENT ( #65, #16, ( #150 ) ) ;
#24 = ORIENTED_EDGE ( 'NONE', *, *, #286, .T. ) ;
#25 = AXIS2_PLACEMENT_3D ( 'NONE', #81, #75, #168 ) ;
#26 = CARTESIAN_POINT ( 'NONE',  ( 0.0000000000000000000, 0.0000000000000000000, 0.0000000000000000000 ) ) ;
#27 = FACE_OUTER_BOUND ( 'NONE', #131, .T. ) ;
#28 = DIRECTION ( 'NONE',  ( -3.491481338843133355E-15, 1.224646799147353454E-16, -1.000000000000000000 ) ) ;
#29 = FACE_OUTER_BOUND ( 'NONE', #22, .T. ) ;
#30 = AXIS2_PLACEMENT_3D ( 'NONE', #9, #166, #171 ) ;
#31 = CARTESIAN_POINT ( 'NONE',  ( 8.849961221477468513E-14, 1.205384493975576898, 25.34729635533384240 ) ) ;
#32 = EDGE_CURVE ( 'NONE', #248, #248, #195, .T. ) ;
#33 = FACE_OUTER_BOUND ( 'NONE', #164, .T. ) ;
#34 = DIRECTION ( 'NONE',  ( -3.491481338843133355E-15, 1.224646799147353454E-16, -1.000000000000000000 ) ) ;
#35 = CIRCLE ( 'NONE', #196, 1.383499999999999952 ) ;
#36 = DIRECTION ( 'NONE',  ( 0.0000000000000000000, 1.000000000000000000, 0.0000000000000000000 ) ) ;
#37 = DIRECTION ( 'NONE',  ( -3.491481338843133355E-15, 1.224646799147353454E-16, -1.000000000000000000 ) ) ;
#38 =( GEOMETRIC_REPRESENTATION_CONTEXT ( 3 ) GLOBAL_UNCERTAINTY_ASSIGNED_CONTEXT ( ( #54 ) ) GLOBAL_UNIT_ASSIGNED_CONTEXT ( ( #299, #258, #224 ) ) REPRESENTATION_CONTEXT ( 'NONE', 'WORKASPACE' ) );
#39 = CC_DESIGN_DATE_AND_TIME_ASSIGNMENT ( #208, #236, ( #43 ) ) ;
#40 = CARTESIAN_POINT ( 'NONE',  ( 3.491481338843133355E-14, 1.383499999999998620, 10.00000000000000000 ) ) ;
#41 = APPLICATION_CONTEXT ( 'configuration controlled 3d designs of mechanical parts and assemblies' ) ;
#42 = COORDINATED_UNIVERSAL_TIME_OFFSET ( 1, 0, .AHEAD. ) ;
#43 = SECURITY_CLASSIFICATION ( '', '', #73 ) ;
#44 = APPROVAL_DATE_TIME ( #279, #215 ) ;
#45 = CARTESIAN_POINT ( 'NONE',  ( 0.0000000000000000000, 0.0000000000000000000, 0.0000000000000000000 ) ) ;
#46 = DIRECTION ( 'NONE',  ( -4.176212383926066704E-31, -1.000000000000000000, -1.175499283504342799E-16 ) ) ;
#47 = ADVANCED_FACE ( 'NONE', ( #209, #187 ), #261, .T. ) ;
#48 = AXIS2_PLACEMENT_3D ( 'NONE', #219, #61, #149 ) ;
#49 = ORIENTED_EDGE ( 'NONE', *, *, #231, .F. ) ;
#50 = EDGE_LOOP ( 'NONE', ( #266 ) ) ;
#51 = ORIENTED_EDGE ( 'NONE', *, *, #286, .F. ) ;
#52 = MANIFOLD_SOLID_BREP ( 'Corps-Déplacer/Copier1[2]', #301 ) ;
#53 = CARTESIAN_POINT ( 'NONE',  ( 3.617570109905906359E-14, 1.174999999999996936, 10.36113259337811954 ) ) ;
#54 = UNCERTAINTY_MEASURE_WITH_UNIT (LENGTH_MEASURE( 1.000000000000000082E-05 ), #299, 'distance_accuracy_value', 'NONE');
#55 = APPROVAL_PERSON_ORGANIZATION ( #20, #198, #232 ) ;
#56 = CC_DESIGN_DATE_AND_TIME_ASSIGNMENT ( #18, #62, ( #275 ) ) ;
#57 = DIRECTION ( 'NONE',  ( -3.491481338843133355E-15, 1.224646799147353454E-16, -1.000000000000000000 ) ) ;
#58 = DIRECTION ( 'NONE',  ( 0.0000000000000000000, 1.000000000000000000, 0.0000000000000000000 ) ) ;
#59 = DIRECTION ( 'NONE',  ( 3.491481338843133355E-15, -1.224646799147353454E-16, 1.000000000000000000 ) ) ;
#60 = CIRCLE ( 'NONE', #282, 1.200000000000001510 ) ;
#61 = DIRECTION ( 'NONE',  ( -3.491481338843133355E-15, 1.224646799147353454E-16, -1.000000000000000000 ) ) ;
#62 = DATE_TIME_ROLE ( 'creation_date' ) ;
#63 = PRODUCT_DEFINITION_SHAPE ( 'NONE', 'NONE',  #275 ) ;
#64 = VERTEX_POINT ( 'NONE', #89 ) ;
#65 = PERSON_AND_ORGANIZATION ( #228, #161 ) ;
#66 = TOROIDAL_SURFACE ( 'NONE', #281, 3.175000000000000266, 2.000000000000000888 ) ;
#67 = EDGE_LOOP ( 'NONE', ( #180 ) ) ;
#68 = EDGE_LOOP ( 'NONE', ( #160 ) ) ;
#69 = FACE_OUTER_BOUND ( 'NONE', #67, .T. ) ;
#70 = AXIS2_PLACEMENT_3D ( 'NONE', #285, #206, #234 ) ;
#71 = APPROVAL_PERSON_ORGANIZATION ( #173, #215, #257 ) ;
#72 = CARTESIAN_POINT ( 'NONE',  ( 9.433334530136822643E-14, -3.308768346860495140E-15, 27.01814391842764707 ) ) ;
#73 = SECURITY_CLASSIFICATION_LEVEL ( 'unclassified' ) ;
#74 = EDGE_LOOP ( 'NONE', ( #225 ) ) ;
#75 = DIRECTION ( 'NONE',  ( -3.491481338843133355E-15, 1.224646799147353454E-16, -1.000000000000000000 ) ) ;
#76 = ADVANCED_FACE ( 'NONE', ( #27 ), #95, .F. ) ;
#77 = DIRECTION ( 'NONE',  ( 3.491481338843133355E-15, -1.224646799147353454E-16, 1.000000000000000000 ) ) ;
#78 = CIRCLE ( 'NONE', #203, 1.499999999999996003 ) ;
#79 = CARTESIAN_POINT ( 'NONE',  ( 2.129803616694311221E-13, -7.470345474798856659E-15, 61.00000000000000000 ) ) ;
#80 = ADVANCED_FACE ( 'NONE', ( #237, #263 ), #157, .T. ) ;
#81 = CARTESIAN_POINT ( 'NONE',  ( 3.617570109905906359E-14, -1.268872786602183144E-15, 10.36113259337811954 ) ) ;
#82 = DIRECTION ( 'NONE',  ( -3.491481338843133355E-15, 1.224646799147353454E-16, -1.000000000000000000 ) ) ;
#83 = APPLICATION_PROTOCOL_DEFINITION ( 'international standard', 'config_control_design', 1994, #41 ) ;
#84 = COORDINATED_UNIVERSAL_TIME_OFFSET ( 1, 0, .AHEAD. ) ;
#85 = ORIENTED_EDGE ( 'NONE', *, *, #32, .F. ) ;
#86 = MECHANICAL_CONTEXT ( 'NONE', #41, 'mechanical' ) ;
#87 = VERTEX_POINT ( 'NONE', #40 ) ;
#88 = ADVANCED_FACE ( 'NONE', ( #283, #137 ), #4, .T. ) ;
#89 = CARTESIAN_POINT ( 'NONE',  ( 2.119329172677781757E-13, 1.499999999999994005, 60.69999999999999574 ) ) ;
#90 = PERSON_AND_ORGANIZATION ( #228, #161 ) ;
#91 = AXIS2_PLACEMENT_3D ( 'NONE', #26, #211, #6 ) ;
#92 = PERSON_AND_ORGANIZATION_ROLE ( 'design_supplier' ) ;
#93 = ORIENTED_EDGE ( 'NONE', *, *, #297, .T. ) ;
#94 = CC_DESIGN_PERSON_AND_ORGANIZATION_ASSIGNMENT ( #90, #205, ( #43 ) ) ;
#95 = PLANE ( 'NONE',  #244 ) ;
#96 = APPROVAL_ROLE ( '' ) ;
#97 = DIRECTION ( 'NONE',  ( 3.491481338843133355E-15, -1.224646799147353454E-16, 1.000000000000000000 ) ) ;
#98 = AXIS2_PLACEMENT_3D ( 'NONE', #5, #186, #46 ) ;
#99 = DIRECTION ( 'NONE',  ( -3.491481338843133355E-15, 1.224646799147353454E-16, -1.000000000000000000 ) ) ;
#100 = FACE_BOUND ( 'NONE', #151, .T. ) ;
#101 = CYLINDRICAL_SURFACE ( 'NONE', #119, 1.499999999999998668 ) ;
#102 = AXIS2_PLACEMENT_3D ( 'NONE', #273, #123, #127 ) ;
#103 = DIRECTION ( 'NONE',  ( -4.275831445896959482E-31, -1.000000000000000000, -1.224646799147353454E-16 ) ) ;
#104 = ADVANCED_FACE ( 'NONE', ( #69, #105 ), #101, .T. ) ;
#105 = FACE_OUTER_BOUND ( 'NONE', #204, .T. ) ;
#106 = FACE_OUTER_BOUND ( 'NONE', #50, .T. ) ;
#107 = CARTESIAN_POINT ( 'NONE',  ( 8.728703347107833388E-16, 1.383499999999998620, 0.2500000000000000000 ) ) ;
#108 = CC_DESIGN_PERSON_AND_ORGANIZATION_ASSIGNMENT ( #303, #134, ( #275 ) ) ;
#109 = PERSON_AND_ORGANIZATION ( #228, #161 ) ;
#110 = DATE_AND_TIME ( #298, #270 ) ;
#111 = ORIENTED_EDGE ( 'NONE', *, *, #178, .T. ) ;
#112 = ADVANCED_FACE ( 'NONE', ( #167, #146 ), #66, .F. ) ;
#113 = CC_DESIGN_APPROVAL ( #198, ( #245 ) ) ;
#114 = COORDINATED_UNIVERSAL_TIME_OFFSET ( 1, 0, .AHEAD. ) ;
#115 = ORIENTED_EDGE ( 'NONE', *, *, #268, .F. ) ;
#116 = FACE_OUTER_BOUND ( 'NONE', #199, .T. ) ;
#117 = DIRECTION ( 'NONE',  ( 0.0000000000000000000, 1.000000000000000000, 0.0000000000000000000 ) ) ;
#118 = ORIENTED_EDGE ( 'NONE', *, *, #300, .T. ) ;
#119 = AXIS2_PLACEMENT_3D ( 'NONE', #294, #57, #13 ) ;
#120 = EDGE_LOOP ( 'NONE', ( #111 ) ) ;
#121 = PLANE ( 'NONE',  #139 ) ;
#122 = ADVANCED_FACE ( 'NONE', ( #221 ), #7, .F. ) ;
#123 = DIRECTION ( 'NONE',  ( -3.491481338843133355E-15, 1.224646799147353454E-16, -1.000000000000000000 ) ) ;
#124 = AXIS2_PLACEMENT_3D ( 'NONE', #229, #132, #278 ) ;
#125 = DIRECTION ( 'NONE',  ( -4.275831445896959482E-31, -1.000000000000000000, -1.224646799147353454E-16 ) ) ;
#126 = FACE_OUTER_BOUND ( 'NONE', #235, .T. ) ;
#127 = DIRECTION ( 'NONE',  ( 0.0000000000000000000, 1.000000000000000000, 0.0000000000000000000 ) ) ;
#128 = ADVANCED_FACE ( 'NONE', ( #33, #148 ), #252, .T. ) ;
#129 = CALENDAR_DATE ( 2021, 30, 11 ) ;
#130 = CIRCLE ( 'NONE', #102, 1.174999999999998268 ) ;
#131 = EDGE_LOOP ( 'NONE', ( #115 ) ) ;
#132 = DIRECTION ( 'NONE',  ( 0.0000000000000000000, 0.0000000000000000000, 1.000000000000000000 ) ) ;
#133 = AXIS2_PLACEMENT_3D ( 'NONE', #45, #99, #212 ) ;
#134 = PERSON_AND_ORGANIZATION_ROLE ( 'creator' ) ;
#135 = EDGE_LOOP ( 'NONE', ( #162 ) ) ;
#136 = CALENDAR_DATE ( 2021, 30, 11 ) ;
#137 = FACE_BOUND ( 'NONE', #138, .T. ) ;
#138 = EDGE_LOOP ( 'NONE', ( #260 ) ) ;
#139 = AXIS2_PLACEMENT_3D ( 'NONE', #272, #77, #125 ) ;
#140 = CARTESIAN_POINT ( 'NONE',  ( 2.129803616694311221E-13, 8.998558695971049855E-33, 61.00000000000000000 ) ) ;
#141 = FACE_OUTER_BOUND ( 'NONE', #156, .T. ) ;
#142 = COORDINATED_UNIVERSAL_TIME_OFFSET ( 1, 0, .AHEAD. ) ;
#143 = ORIENTED_EDGE ( 'NONE', *, *, #231, .T. ) ;
#144 = VERTEX_POINT ( 'NONE', #31 ) ;
#145 = CC_DESIGN_PERSON_AND_ORGANIZATION_ASSIGNMENT ( #109, #92, ( #245 ) ) ;
#146 = FACE_OUTER_BOUND ( 'NONE', #267, .T. ) ;
#147 = DIRECTION ( 'NONE',  ( -3.491481338843133355E-15, 1.224646799147353454E-16, -1.000000000000000000 ) ) ;
#148 = FACE_BOUND ( 'NONE', #120, .T. ) ;
#149 = DIRECTION ( 'NONE',  ( 4.275831445896959482E-31, 1.000000000000000000, 1.224646799147353454E-16 ) ) ;
#150 = PRODUCT ( '326990', '326990', '', ( #86 ) ) ;
#151 = EDGE_LOOP ( 'NONE', ( #255 ) ) ;
#152 = CARTESIAN_POINT ( 'NONE',  ( -3.785471652766323589E-31, 1.239162432702594518, -1.084202172485504434E-16 ) ) ;
#153 = CC_DESIGN_APPROVAL ( #215, ( #275 ) ) ;
#154 = VERTEX_POINT ( 'NONE', #256 ) ;
#155 = CARTESIAN_POINT ( 'NONE',  ( 2.129803616694311221E-13, 1.199999999999993960, 61.00000000000000000 ) ) ;
#156 = EDGE_LOOP ( 'NONE', ( #280 ) ) ;
#157 = CONICAL_SURFACE ( 'NONE', #98, 1.383499999999998620, 0.5235987755982918213 ) ;
#158 = PERSON_AND_ORGANIZATION ( #228, #161 ) ;
#159 = DIRECTION ( 'NONE',  ( 4.275831445896959482E-31, 1.000000000000000000, 1.224646799147353454E-16 ) ) ;
#160 = ORIENTED_EDGE ( 'NONE', *, *, #32, .T. ) ;
#161 = ORGANIZATION ( 'UNSPECIFIED', 'UNSPECIFIED', '' ) ;
#162 = ORIENTED_EDGE ( 'NONE', *, *, #242, .T. ) ;
#163 = DATE_AND_TIME ( #179, #207 ) ;
#164 = EDGE_LOOP ( 'NONE', ( #239 ) ) ;
#165 = CARTESIAN_POINT ( 'NONE',  ( 3.491481338843133355E-14, -1.224646799147353454E-15, 10.00000000000000000 ) ) ;
#166 = DIRECTION ( 'NONE',  ( -3.491481338843133355E-15, 1.224646799147353454E-16, -1.000000000000000000 ) ) ;
#167 = FACE_OUTER_BOUND ( 'NONE', #287, .T. ) ;
#168 = DIRECTION ( 'NONE',  ( 0.0000000000000000000, 1.000000000000000000, 0.0000000000000000000 ) ) ;
#169 = CONICAL_SURFACE ( 'NONE', #222, 1.499999999999996003, 0.1745329251994266473 ) ;
#170 = AXIS2_PLACEMENT_3D ( 'NONE', #165, #82, #217 ) ;
#171 = DIRECTION ( 'NONE',  ( 0.0000000000000000000, 1.000000000000000000, 0.0000000000000000000 ) ) ;
#172 = CARTESIAN_POINT ( 'NONE',  ( 3.491481338843133355E-14, 1.383499999999998620, 10.00000000000000000 ) ) ;
#173 = PERSON_AND_ORGANIZATION ( #228, #161 ) ;
#174 = VERTEX_POINT ( 'NONE', #19 ) ;
#175 = AXIS2_PLACEMENT_3D ( 'NONE', #191, #59, #292 ) ;
#176 = VERTEX_POINT ( 'NONE', #152 ) ;
#177 = COORDINATED_UNIVERSAL_TIME_OFFSET ( 1, 0, .AHEAD. ) ;
#178 = EDGE_CURVE ( 'NONE', #288, #288, #130, .T. ) ;
#179 = CALENDAR_DATE ( 2021, 30, 11 ) ;
#180 = ORIENTED_EDGE ( 'NONE', *, *, #297, .F. ) ;
#181 = CARTESIAN_POINT ( 'NONE',  ( 2.129803616694311221E-13, -7.470345474798856659E-15, 61.00000000000000000 ) ) ;
#182 = EDGE_LOOP ( 'NONE', ( #143 ) ) ;
#183 = AXIS2_PLACEMENT_3D ( 'NONE', #192, #293, #103 ) ;
#184 = AXIS2_PLACEMENT_3D ( 'NONE', #216, #246, #289 ) ;
#185 = SHAPE_DEFINITION_REPRESENTATION ( #63, #210 ) ;
#186 = DIRECTION ( 'NONE',  ( 3.491481338843133355E-15, -1.224646799147353454E-16, 1.000000000000000000 ) ) ;
#187 = FACE_OUTER_BOUND ( 'NONE', #182, .T. ) ;
#188 = CARTESIAN_POINT ( 'NONE',  ( 8.728703347107833388E-14, -3.035766082959412415E-15, 25.00000000000000000 ) ) ;
#189 = EDGE_CURVE ( 'NONE', #144, #144, #265, .T. ) ;
#190 = AXIS2_PLACEMENT_3D ( 'NONE', #194, #147, #243 ) ;
#191 = CARTESIAN_POINT ( 'NONE',  ( 3.491481338843133355E-14, 1.037458829656338487E-32, 10.00000000000000000 ) ) ;
#192 = CARTESIAN_POINT ( 'NONE',  ( 3.491481338843133355E-14, 1.037458829656338487E-32, 10.00000000000000000 ) ) ;
#193 = EDGE_CURVE ( 'NONE', #87, #87, #223, .T. ) ;
#194 = CARTESIAN_POINT ( 'NONE',  ( 2.119329172677781757E-13, -7.433606070824434221E-15, 60.69999999999999574 ) ) ;
#195 = CIRCLE ( 'NONE', #70, 1.383499999999998620 ) ;
#196 = AXIS2_PLACEMENT_3D ( 'NONE', #271, #37, #36 ) ;
#197 = PERSON_AND_ORGANIZATION_ROLE ( 'creator' ) ;
#198 = APPROVAL ( #254, 'UNSPECIFIED' ) ;
#199 = EDGE_LOOP ( 'NONE', ( #93 ) ) ;
#200 = APPROVAL_DATE_TIME ( #110, #198 ) ;
#201 = PRODUCT_RELATED_PRODUCT_CATEGORY ( 'detail', '', ( #150 ) ) ;
#202 = APPROVAL_STATUS ( 'not_yet_approved' ) ;
#203 = AXIS2_PLACEMENT_3D ( 'NONE', #274, #34, #269 ) ;
#204 = EDGE_LOOP ( 'NONE', ( #24 ) ) ;
#205 = PERSON_AND_ORGANIZATION_ROLE ( 'classification_officer' ) ;
#206 = DIRECTION ( 'NONE',  ( -3.491481338843133355E-15, 1.224646799147353454E-16, -1.000000000000000000 ) ) ;
#207 = LOCAL_TIME ( 10, 57, 5.000000000000000000, #177 ) ;
#208 = DATE_AND_TIME ( #136, #230 ) ;
#209 = FACE_OUTER_BOUND ( 'NONE', #264, .T. ) ;
#210 = ADVANCED_BREP_SHAPE_REPRESENTATION ( '326990', ( #247, #52, #124 ), #38 ) ;
#211 = DIRECTION ( 'NONE',  ( -3.491481338843133355E-15, 1.224646799147353454E-16, -1.000000000000000000 ) ) ;
#212 = DIRECTION ( 'NONE',  ( 4.275831445896959482E-31, 1.000000000000000000, 1.224646799147353454E-16 ) ) ;
#213 = APPROVAL_PERSON_ORGANIZATION ( #158, #291, #96 ) ;
#214 = CYLINDRICAL_SURFACE ( 'NONE', #91, 1.383499999999999286 ) ;
#215 = APPROVAL ( #202, 'UNSPECIFIED' ) ;
#216 = CARTESIAN_POINT ( 'NONE',  ( 8.849961221477468513E-14, -3.104148534859897150E-15, 25.34729635533384240 ) ) ;
#217 = DIRECTION ( 'NONE',  ( 0.0000000000000000000, 1.000000000000000000, 0.0000000000000000000 ) ) ;
#218 = CIRCLE ( 'NONE', #190, 1.500000000000001332 ) ;
#219 = CARTESIAN_POINT ( 'NONE',  ( -9.083921349090251999E-31, 3.186210700915762287E-32, -2.601738479318384269E-16 ) ) ;
#220 = DIRECTION ( 'NONE',  ( -3.491481338843133355E-15, 1.224646799147353454E-16, -1.000000000000000000 ) ) ;
#221 = FACE_OUTER_BOUND ( 'NONE', #135, .T. ) ;
#222 = AXIS2_PLACEMENT_3D ( 'NONE', #72, #97, #238 ) ;
#223 = CIRCLE ( 'NONE', #170, 1.383499999999999952 ) ;
#224 =( NAMED_UNIT ( * ) SI_UNIT ( $, .STERADIAN. ) SOLID_ANGLE_UNIT ( ) );
#225 = ORIENTED_EDGE ( 'NONE', *, *, #300, .F. ) ;
#226 = ADVANCED_FACE ( 'NONE', ( #126 ), #121, .F. ) ;
#227 = APPLICATION_PROTOCOL_DEFINITION ( 'international standard', 'config_control_design', 1994, #11 ) ;
#228 = PERSON ( 'UNSPECIFIED', 'UNSPECIFIED', 'UNSPECIFIED', ('UNSPECIFIED'), ('UNSPECIFIED'), ('UNSPECIFIED') ) ;
#229 = CARTESIAN_POINT ( 'NONE',  ( 0.0000000000000000000, 0.0000000000000000000, 0.0000000000000000000 ) ) ;
#230 = LOCAL_TIME ( 10, 57, 5.000000000000000000, #142 ) ;
#231 = EDGE_CURVE ( 'NONE', #174, #174, #259, .T. ) ;
#232 = APPROVAL_ROLE ( '' ) ;
#233 = APPROVAL_DATE_TIME ( #163, #291 ) ;
#234 = DIRECTION ( 'NONE',  ( 4.176212383926066704E-31, 1.000000000000000000, 1.175499283504342799E-16 ) ) ;
#235 = EDGE_LOOP ( 'NONE', ( #118 ) ) ;
#236 = DATE_TIME_ROLE ( 'classification_date' ) ;
#237 = FACE_BOUND ( 'NONE', #74, .T. ) ;
#238 = DIRECTION ( 'NONE',  ( 0.0000000000000000000, -1.000000000000000000, 0.0000000000000000000 ) ) ;
#239 = ORIENTED_EDGE ( 'NONE', *, *, #242, .F. ) ;
#240 = CC_DESIGN_SECURITY_CLASSIFICATION ( #43, ( #245 ) ) ;
#241 = DIRECTION ( 'NONE',  ( 4.275831445896959482E-31, 1.000000000000000000, 1.224646799147353454E-16 ) ) ;
#242 = EDGE_CURVE ( 'NONE', #249, #249, #35, .T. ) ;
#243 = DIRECTION ( 'NONE',  ( 0.0000000000000000000, 1.000000000000000000, 0.0000000000000000000 ) ) ;
#244 = AXIS2_PLACEMENT_3D ( 'NONE', #140, #28, #159 ) ;
#245 = PRODUCT_DEFINITION_FORMATION_WITH_SPECIFIED_SOURCE ( 'ANY', '', #150, .NOT_KNOWN. ) ;
#246 = DIRECTION ( 'NONE',  ( -3.491481338843133355E-15, 1.224646799147353454E-16, -1.000000000000000000 ) ) ;
#247 = MANIFOLD_SOLID_BREP ( 'Corps-Déplacer/Copier1[1]', #295 ) ;
#248 = VERTEX_POINT ( 'NONE', #107 ) ;
#249 = VERTEX_POINT ( 'NONE', #172 ) ;
#250 = ORIENTED_EDGE ( 'NONE', *, *, #178, .F. ) ;
#251 = CC_DESIGN_PERSON_AND_ORGANIZATION_ASSIGNMENT ( #21, #197, ( #245 ) ) ;
#252 = CONICAL_SURFACE ( 'NONE', #25, 1.174999999999998268, 0.5235987755982922653 ) ;
#253 = CIRCLE ( 'NONE', #48, 1.239162432702594518 ) ;
#254 = APPROVAL_STATUS ( 'not_yet_approved' ) ;
#255 = ORIENTED_EDGE ( 'NONE', *, *, #189, .F. ) ;
#256 = CARTESIAN_POINT ( 'NONE',  ( 9.433334530136822643E-14, 1.499999999999992673, 27.01814391842764707 ) ) ;
#257 = APPROVAL_ROLE ( '' ) ;
#258 =( NAMED_UNIT ( * ) PLANE_ANGLE_UNIT ( ) SI_UNIT ( $, .RADIAN. ) );
#259 = CIRCLE ( 'NONE', #30, 1.175000000000000266 ) ;
#260 = ORIENTED_EDGE ( 'NONE', *, *, #268, .T. ) ;
#261 = CYLINDRICAL_SURFACE ( 'NONE', #133, 1.174999999999999378 ) ;
#262 = ADVANCED_FACE ( 'NONE', ( #106 ), #15, .T. ) ;
#263 = FACE_OUTER_BOUND ( 'NONE', #68, .T. ) ;
#264 = EDGE_LOOP ( 'NONE', ( #250 ) ) ;
#265 = CIRCLE ( 'NONE', #184, 1.205384493975580007 ) ;
#266 = ORIENTED_EDGE ( 'NONE', *, *, #193, .F. ) ;
#267 = EDGE_LOOP ( 'NONE', ( #1 ) ) ;
#268 = EDGE_CURVE ( 'NONE', #277, #277, #60, .T. ) ;
#269 = DIRECTION ( 'NONE',  ( 0.0000000000000000000, 1.000000000000000000, 0.0000000000000000000 ) ) ;
#270 = LOCAL_TIME ( 10, 57, 5.000000000000000000, #114 ) ;
#271 = CARTESIAN_POINT ( 'NONE',  ( 3.491481338843133355E-14, -1.224646799147353454E-15, 10.00000000000000000 ) ) ;
#272 = CARTESIAN_POINT ( 'NONE',  ( -4.541960674545125999E-31, 1.593105350457881143E-32, -1.300869239659192134E-16 ) ) ;
#273 = CARTESIAN_POINT ( 'NONE',  ( 3.617570109905906359E-14, -1.268872786602183144E-15, 10.36113259337811954 ) ) ;
#274 = CARTESIAN_POINT ( 'NONE',  ( 9.433334530136822643E-14, -3.308768346860495140E-15, 27.01814391842764707 ) ) ;
#275 = PRODUCT_DEFINITION ( 'UNKNOWN', '', #245, #8 ) ;
#276 = CALENDAR_DATE ( 2021, 30, 11 ) ;
#277 = VERTEX_POINT ( 'NONE', #155 ) ;
#278 = DIRECTION ( 'NONE',  ( 1.000000000000000000, 0.0000000000000000000, 0.0000000000000000000 ) ) ;
#279 = DATE_AND_TIME ( #276, #10 ) ;
#280 = ORIENTED_EDGE ( 'NONE', *, *, #193, .T. ) ;
#281 = AXIS2_PLACEMENT_3D ( 'NONE', #188, #12, #241 ) ;
#282 = AXIS2_PLACEMENT_3D ( 'NONE', #79, #220, #58 ) ;
#283 = FACE_OUTER_BOUND ( 'NONE', #17, .T. ) ;
#284 = DIRECTION ( 'NONE',  ( -3.491481338843133355E-15, 1.224646799147353454E-16, -1.000000000000000000 ) ) ;
#285 = CARTESIAN_POINT ( 'NONE',  ( 8.728703347107827472E-16, -3.061616997868381785E-17, 0.2499999999999998335 ) ) ;
#286 = EDGE_CURVE ( 'NONE', #64, #64, #218, .T. ) ;
#287 = EDGE_LOOP ( 'NONE', ( #49 ) ) ;
#288 = VERTEX_POINT ( 'NONE', #53 ) ;
#289 = DIRECTION ( 'NONE',  ( 0.0000000000000000000, 1.000000000000000000, 0.0000000000000000000 ) ) ;
#290 = AXIS2_PLACEMENT_3D ( 'NONE', #181, #284, #117 ) ;
#291 = APPROVAL ( #2, 'UNSPECIFIED' ) ;
#292 = DIRECTION ( 'NONE',  ( -4.275831445896959482E-31, -1.000000000000000000, -1.224646799147353454E-16 ) ) ;
#293 = DIRECTION ( 'NONE',  ( 3.491481338843133355E-15, -1.224646799147353454E-16, 1.000000000000000000 ) ) ;
#294 = CARTESIAN_POINT ( 'NONE',  ( 0.0000000000000000000, 0.0000000000000000000, 0.0000000000000000000 ) ) ;
#295 = CLOSED_SHELL ( 'NONE', ( #122, #128, #47, #112, #14, #104, #88, #76 ) ) ;
#296 = LOCAL_TIME ( 10, 57, 5.000000000000000000, #42 ) ;
#297 = EDGE_CURVE ( 'NONE', #154, #154, #78, .T. ) ;
#298 = CALENDAR_DATE ( 2021, 30, 11 ) ;
#299 =( LENGTH_UNIT ( ) NAMED_UNIT ( * ) SI_UNIT ( .MILLI., .METRE. ) );
#300 = EDGE_CURVE ( 'NONE', #176, #176, #253, .T. ) ;
#301 = CLOSED_SHELL ( 'NONE', ( #226, #80, #3, #262 ) ) ;
#302 = CC_DESIGN_APPROVAL ( #291, ( #43 ) ) ;
#303 = PERSON_AND_ORGANIZATION ( #228, #161 ) ;
ENDSEC;
END-ISO-10303-21;
