ISO-10303-21;
HEADER;
FILE_DESCRIPTION (( 'STEP AP203' ),
    '1' );
FILE_NAME ('326989.step',
    '2021-11-30T09:36:57',
    ( '' ),
    ( '' ),
    'SwSTEP 2.0',
    'SolidWorks 2019',
    '' );
FILE_SCHEMA (( 'CONFIG_CONTROL_DESIGN' ));
ENDSEC;

DATA;
#1 = ORIENTED_EDGE ( 'NONE', *, *, #147, .T. ) ;
#2 = ADVANCED_FACE ( 'NONE', ( #220, #291 ), #55, .T. ) ;
#3 = CONICAL_SURFACE ( 'NONE', #57, 1.200000000000001510, 0.7853981633974453924 ) ;
#4 = FACE_BOUND ( 'NONE', #151, .T. ) ;
#5 = PERSON_AND_ORGANIZATION ( #103, #248 ) ;
#6 = CARTESIAN_POINT ( 'NONE',  ( 0.0000000000000000000, 0.0000000000000000000, 0.0000000000000000000 ) ) ;
#7 = AXIS2_PLACEMENT_3D ( 'NONE', #236, #22, #115 ) ;
#8 = DIRECTION ( 'NONE',  ( 0.0000000000000000000, 1.000000000000000000, 0.0000000000000000000 ) ) ;
#9 = CC_DESIGN_PERSON_AND_ORGANIZATION_ASSIGNMENT ( #152, #28, ( #228 ) ) ;
#10 = CC_DESIGN_APPROVAL ( #29, ( #24 ) ) ;
#11 = DIRECTION ( 'NONE',  ( -3.491481338843133355E-15, 1.224646799147353454E-16, -1.000000000000000000 ) ) ;
#12 = FACE_OUTER_BOUND ( 'NONE', #282, .T. ) ;
#13 = CARTESIAN_POINT ( 'NONE',  ( -9.019783877401797856E-31, 3.163714304175834806E-32, -2.583368777331174134E-16 ) ) ;
#14 = CC_DESIGN_PERSON_AND_ORGANIZATION_ASSIGNMENT ( #278, #254, ( #92 ) ) ;
#15 = FACE_BOUND ( 'NONE', #93, .T. ) ;
#16 = AXIS2_PLACEMENT_3D ( 'NONE', #33, #17, #267 ) ;
#17 = DIRECTION ( 'NONE',  ( 3.491481338843133355E-15, -1.224646799147353454E-16, 1.000000000000000000 ) ) ;
#18 = DIRECTION ( 'NONE',  ( 4.275831445896959482E-31, 1.000000000000000000, 1.224646799147353454E-16 ) ) ;
#19 = CONICAL_SURFACE ( 'NONE', #204, 1.149999999999998135, 0.5235987755982931535 ) ;
#20 = APPLICATION_PROTOCOL_DEFINITION ( 'international standard', 'config_control_design', 1994, #97 ) ;
#21 = COORDINATED_UNIVERSAL_TIME_OFFSET ( 1, 0, .AHEAD. ) ;
#22 = DIRECTION ( 'NONE',  ( -3.491481338843133355E-15, 1.224646799147353454E-16, -1.000000000000000000 ) ) ;
#23 = EDGE_LOOP ( 'NONE', ( #25 ) ) ;
#24 = PRODUCT_DEFINITION ( 'UNKNOWN', '', #228, #135 ) ;
#25 = ORIENTED_EDGE ( 'NONE', *, *, #138, .F. ) ;
#26 = APPROVAL_ROLE ( '' ) ;
#27 = EDGE_LOOP ( 'NONE', ( #74 ) ) ;
#28 = PERSON_AND_ORGANIZATION_ROLE ( 'creator' ) ;
#29 = APPROVAL ( #137, 'UNSPECIFIED' ) ;
#30 = ORIENTED_EDGE ( 'NONE', *, *, #63, .T. ) ;
#31 = DATE_AND_TIME ( #122, #64 ) ;
#32 = CIRCLE ( 'NONE', #246, 1.368499999999998940 ) ;
#33 = CARTESIAN_POINT ( 'NONE',  ( 9.482837466738113547E-14, -3.326131639679139872E-15, 27.15992596391809855 ) ) ;
#34 =( GEOMETRIC_REPRESENTATION_CONTEXT ( 3 ) GLOBAL_UNCERTAINTY_ASSIGNED_CONTEXT ( ( #253 ) ) GLOBAL_UNIT_ASSIGNED_CONTEXT ( ( #260, #46, #255 ) ) REPRESENTATION_CONTEXT ( 'NONE', 'WORKASPACE' ) );
#35 = DIRECTION ( 'NONE',  ( 3.491481338843133355E-15, -1.224646799147353454E-16, 1.000000000000000000 ) ) ;
#36 = APPLICATION_CONTEXT ( 'configuration controlled 3d designs of mechanical parts and assemblies' ) ;
#37 = APPROVAL_DATE_TIME ( #266, #192 ) ;
#38 = DIRECTION ( 'NONE',  ( -3.491481338843133355E-15, 1.224646799147353454E-16, -1.000000000000000000 ) ) ;
#39 = ADVANCED_FACE ( 'NONE', ( #173, #118 ), #300, .F. ) ;
#40 = AXIS2_PLACEMENT_3D ( 'NONE', #45, #158, #185 ) ;
#41 = AXIS2_PLACEMENT_3D ( 'NONE', #286, #98, #257 ) ;
#42 = ADVANCED_FACE ( 'NONE', ( #198, #4 ), #19, .T. ) ;
#43 = ORIENTED_EDGE ( 'NONE', *, *, #176, .F. ) ;
#44 = DIRECTION ( 'NONE',  ( 3.491481338843133355E-15, -1.224646799147353454E-16, 1.000000000000000000 ) ) ;
#45 = CARTESIAN_POINT ( 'NONE',  ( 3.491481338843133355E-14, -1.224646799147353454E-15, 10.00000000000000000 ) ) ;
#46 =( NAMED_UNIT ( * ) PLANE_ANGLE_UNIT ( ) SI_UNIT ( $, .RADIAN. ) );
#47 = PRODUCT_DEFINITION_SHAPE ( 'NONE', 'NONE',  #24 ) ;
#48 = MECHANICAL_CONTEXT ( 'NONE', #36, 'mechanical' ) ;
#49 = EDGE_LOOP ( 'NONE', ( #261 ) ) ;
#50 = PERSON_AND_ORGANIZATION ( #103, #248 ) ;
#51 = CARTESIAN_POINT ( 'NONE',  ( 2.129803616694311221E-13, -7.470345474798856659E-15, 61.00000000000000000 ) ) ;
#52 = EDGE_CURVE ( 'NONE', #209, #209, #250, .T. ) ;
#53 = ORIENTED_EDGE ( 'NONE', *, *, #213, .F. ) ;
#54 = CYLINDRICAL_SURFACE ( 'NONE', #113, 1.149999999999999023 ) ;
#55 = CYLINDRICAL_SURFACE ( 'NONE', #288, 1.368499999999999384 ) ;
#56 = EDGE_LOOP ( 'NONE', ( #53 ) ) ;
#57 = AXIS2_PLACEMENT_3D ( 'NONE', #66, #11, #201 ) ;
#58 = ORIENTED_EDGE ( 'NONE', *, *, #230, .F. ) ;
#59 = DIRECTION ( 'NONE',  ( -3.491481338843133355E-15, 1.224646799147353454E-16, -1.000000000000000000 ) ) ;
#60 = FACE_BOUND ( 'NONE', #242, .T. ) ;
#61 = CALENDAR_DATE ( 2021, 30, 11 ) ;
#62 = DIRECTION ( 'NONE',  ( -4.275831445896959482E-31, -1.000000000000000000, -1.224646799147353454E-16 ) ) ;
#63 = EDGE_CURVE ( 'NONE', #162, #162, #110, .T. ) ;
#64 = LOCAL_TIME ( 10, 36, 57.00000000000000000, #202 ) ;
#65 = DIRECTION ( 'NONE',  ( 4.221987455726497849E-31, 1.000000000000000000, 1.188383820773297762E-16 ) ) ;
#66 = CARTESIAN_POINT ( 'NONE',  ( 2.129803616694311221E-13, -7.470345474798856659E-15, 61.00000000000000000 ) ) ;
#67 = CARTESIAN_POINT ( 'NONE',  ( 8.728703347107833388E-14, 1.149999999999997025, 25.00000000000000000 ) ) ;
#68 = VERTEX_POINT ( 'NONE', #239 ) ;
#69 = CARTESIAN_POINT ( 'NONE',  ( 2.119329172677781757E-13, 1.499999999999994005, 60.69999999999999574 ) ) ;
#70 = ADVANCED_FACE ( 'NONE', ( #100 ), #142, .F. ) ;
#71 = EDGE_LOOP ( 'NONE', ( #243 ) ) ;
#72 = AXIS2_PLACEMENT_3D ( 'NONE', #207, #79, #125 ) ;
#73 = VERTEX_POINT ( 'NONE', #136 ) ;
#74 = ORIENTED_EDGE ( 'NONE', *, *, #213, .T. ) ;
#75 = PERSON_AND_ORGANIZATION_ROLE ( 'design_supplier' ) ;
#76 = DIRECTION ( 'NONE',  ( -3.491481338843133355E-15, 1.224646799147353454E-16, -1.000000000000000000 ) ) ;
#77 = SHAPE_DEFINITION_REPRESENTATION ( #47, #131 ) ;
#78 = EDGE_LOOP ( 'NONE', ( #284 ) ) ;
#79 = DIRECTION ( 'NONE',  ( -3.491481338843133355E-15, 1.224646799147353454E-16, -1.000000000000000000 ) ) ;
#80 = APPROVAL_STATUS ( 'not_yet_approved' ) ;
#81 = DIRECTION ( 'NONE',  ( -3.491481338843133355E-15, 1.224646799147353454E-16, -1.000000000000000000 ) ) ;
#82 = CARTESIAN_POINT ( 'NONE',  ( 0.0000000000000000000, 0.0000000000000000000, 0.0000000000000000000 ) ) ;
#83 = AXIS2_PLACEMENT_3D ( 'NONE', #82, #156, #249 ) ;
#84 = ADVANCED_FACE ( 'NONE', ( #205 ), #208, .F. ) ;
#85 = LOCAL_TIME ( 10, 36, 57.00000000000000000, #195 ) ;
#86 = DIRECTION ( 'NONE',  ( -3.491481338843133355E-15, 1.224646799147353454E-16, -1.000000000000000000 ) ) ;
#87 = CARTESIAN_POINT ( 'NONE',  ( 0.0000000000000000000, 0.0000000000000000000, 0.0000000000000000000 ) ) ;
#88 = EDGE_CURVE ( 'NONE', #301, #301, #234, .T. ) ;
#89 = CC_DESIGN_APPROVAL ( #192, ( #272 ) ) ;
#90 = DATE_AND_TIME ( #189, #275 ) ;
#91 = EDGE_CURVE ( 'NONE', #281, #281, #139, .T. ) ;
#92 = PRODUCT ( '326989', '326989', '', ( #48 ) ) ;
#93 = EDGE_LOOP ( 'NONE', ( #43 ) ) ;
#94 = CLOSED_SHELL ( 'NONE', ( #183, #42, #298, #39, #170, #285, #268, #70 ) ) ;
#95 = CARTESIAN_POINT ( 'NONE',  ( 8.849961221477468513E-14, 1.180384493975576543, 25.34729635533384240 ) ) ;
#96 = ORIENTED_EDGE ( 'NONE', *, *, #91, .F. ) ;
#97 = APPLICATION_CONTEXT ( 'configuration controlled 3d designs of mechanical parts and assemblies' ) ;
#98 = DIRECTION ( 'NONE',  ( -3.491481338843133355E-15, 1.224646799147353454E-16, -1.000000000000000000 ) ) ;
#99 = PERSON_AND_ORGANIZATION_ROLE ( 'classification_officer' ) ;
#100 = FACE_OUTER_BOUND ( 'NONE', #121, .T. ) ;
#101 = DIRECTION ( 'NONE',  ( 0.0000000000000000000, 1.000000000000000000, 0.0000000000000000000 ) ) ;
#102 = FACE_OUTER_BOUND ( 'NONE', #78, .T. ) ;
#103 = PERSON ( 'UNSPECIFIED', 'UNSPECIFIED', 'UNSPECIFIED', ('UNSPECIFIED'), ('UNSPECIFIED'), ('UNSPECIFIED') ) ;
#104 = DIRECTION ( 'NONE',  ( 0.0000000000000000000, 1.000000000000000000, 0.0000000000000000000 ) ) ;
#105 = ORIENTED_EDGE ( 'NONE', *, *, #52, .T. ) ;
#106 = CARTESIAN_POINT ( 'NONE',  ( 3.491481338843133355E-14, 1.026210631286374609E-32, 10.00000000000000000 ) ) ;
#107 = AXIS2_PLACEMENT_3D ( 'NONE', #155, #35, #223 ) ;
#108 = CARTESIAN_POINT ( 'NONE',  ( 2.119329172677781757E-13, -7.433606070824434221E-15, 60.69999999999999574 ) ) ;
#109 = CONICAL_SURFACE ( 'NONE', #16, 1.499999999999996003, 0.1745329251994264252 ) ;
#110 = CIRCLE ( 'NONE', #157, 1.499999999999996003 ) ;
#111 = APPROVAL_ROLE ( '' ) ;
#112 = APPROVAL ( #80, 'UNSPECIFIED' ) ;
#113 = AXIS2_PLACEMENT_3D ( 'NONE', #145, #214, #18 ) ;
#114 = VERTEX_POINT ( 'NONE', #69 ) ;
#115 = DIRECTION ( 'NONE',  ( 4.275831445896959482E-31, 1.000000000000000000, 1.224646799147353454E-16 ) ) ;
#116 = PERSON_AND_ORGANIZATION ( #103, #248 ) ;
#117 = EDGE_LOOP ( 'NONE', ( #30 ) ) ;
#118 = FACE_OUTER_BOUND ( 'NONE', #164, .T. ) ;
#119 = APPROVAL_DATE_TIME ( #124, #112 ) ;
#120 = ADVANCED_FACE ( 'NONE', ( #273 ), #159, .T. ) ;
#121 = EDGE_LOOP ( 'NONE', ( #251 ) ) ;
#122 = CALENDAR_DATE ( 2021, 30, 11 ) ;
#123 = ORIENTED_EDGE ( 'NONE', *, *, #176, .T. ) ;
#124 = DATE_AND_TIME ( #218, #216 ) ;
#125 = DIRECTION ( 'NONE',  ( 0.0000000000000000000, 1.000000000000000000, 0.0000000000000000000 ) ) ;
#126 = DIRECTION ( 'NONE',  ( -3.491481338843133355E-15, 1.224646799147353454E-16, -1.000000000000000000 ) ) ;
#127 = FACE_OUTER_BOUND ( 'NONE', #71, .T. ) ;
#128 = CIRCLE ( 'NONE', #297, 1.180384493975579652 ) ;
#129 = MANIFOLD_SOLID_BREP ( 'Corps-Déplacer/Copier1[1]', #94 ) ;
#130 = ORIENTED_EDGE ( 'NONE', *, *, #182, .T. ) ;
#131 = ADVANCED_BREP_SHAPE_REPRESENTATION ( '326989', ( #129, #238, #141 ), #34 ) ;
#132 = CARTESIAN_POINT ( 'NONE',  ( 8.849961221477468513E-14, -3.104148534859897150E-15, 25.34729635533384240 ) ) ;
#133 = CARTESIAN_POINT ( 'NONE',  ( 3.491481338843133355E-14, 1.026210631286374609E-32, 10.00000000000000000 ) ) ;
#134 = APPROVAL_PERSON_ORGANIZATION ( #148, #112, #26 ) ;
#135 = DESIGN_CONTEXT ( 'detailed design', #97, 'design' ) ;
#136 = CARTESIAN_POINT ( 'NONE',  ( 3.491481338843133355E-14, 1.368499999999998940, 10.00000000000000000 ) ) ;
#137 = APPROVAL_STATUS ( 'not_yet_approved' ) ;
#138 = EDGE_CURVE ( 'NONE', #68, #68, #32, .T. ) ;
#139 = CIRCLE ( 'NONE', #296, 1.368500000000000050 ) ;
#140 = VERTEX_POINT ( 'NONE', #95 ) ;
#141 = AXIS2_PLACEMENT_3D ( 'NONE', #87, #186, #277 ) ;
#142 = PLANE ( 'NONE',  #7 ) ;
#143 = CARTESIAN_POINT ( 'NONE',  ( 3.623617532978461367E-14, 1.149999999999997025, 10.37845310145380751 ) ) ;
#144 = ORIENTED_EDGE ( 'NONE', *, *, #182, .F. ) ;
#145 = CARTESIAN_POINT ( 'NONE',  ( 0.0000000000000000000, 0.0000000000000000000, 0.0000000000000000000 ) ) ;
#146 = DIRECTION ( 'NONE',  ( -3.491481338843133355E-15, 1.224646799147353454E-16, -1.000000000000000000 ) ) ;
#147 = EDGE_CURVE ( 'NONE', #73, #73, #233, .T. ) ;
#148 = PERSON_AND_ORGANIZATION ( #103, #248 ) ;
#149 = DIRECTION ( 'NONE',  ( 0.0000000000000000000, 1.000000000000000000, 0.0000000000000000000 ) ) ;
#150 = PERSON_AND_ORGANIZATION ( #103, #248 ) ;
#151 = EDGE_LOOP ( 'NONE', ( #215 ) ) ;
#152 = PERSON_AND_ORGANIZATION ( #103, #248 ) ;
#153 = CC_DESIGN_DATE_AND_TIME_ASSIGNMENT ( #31, #197, ( #272 ) ) ;
#154 = DIRECTION ( 'NONE',  ( 4.275831445896959482E-31, 1.000000000000000000, 1.224646799147353700E-16 ) ) ;
#155 = CARTESIAN_POINT ( 'NONE',  ( 8.728703347107827472E-16, -3.061616997868381785E-17, 0.2499999999999998335 ) ) ;
#156 = DIRECTION ( 'NONE',  ( -3.491481338843133355E-15, 1.224646799147353454E-16, -1.000000000000000000 ) ) ;
#157 = AXIS2_PLACEMENT_3D ( 'NONE', #212, #174, #8 ) ;
#158 = DIRECTION ( 'NONE',  ( -3.491481338843133355E-15, 1.224646799147353454E-16, -1.000000000000000000 ) ) ;
#159 = PLANE ( 'NONE',  #165 ) ;
#160 = CLOSED_SHELL ( 'NONE', ( #84, #276, #2, #120 ) ) ;
#161 = CARTESIAN_POINT ( 'NONE',  ( 3.491481338843133355E-14, 1.368499999999998940, 10.00000000000000000 ) ) ;
#162 = VERTEX_POINT ( 'NONE', #232 ) ;
#163 = APPROVAL_DATE_TIME ( #90, #29 ) ;
#164 = EDGE_LOOP ( 'NONE', ( #123 ) ) ;
#165 = AXIS2_PLACEMENT_3D ( 'NONE', #133, #229, #299 ) ;
#166 = DATE_AND_TIME ( #211, #184 ) ;
#167 = CONICAL_SURFACE ( 'NONE', #107, 1.368499999999998940, 0.5235987755982918213 ) ;
#168 = EDGE_LOOP ( 'NONE', ( #263 ) ) ;
#169 = CARTESIAN_POINT ( 'NONE',  ( 2.129803616694311221E-13, 1.199999999999993960, 61.00000000000000000 ) ) ;
#170 = ADVANCED_FACE ( 'NONE', ( #15, #252 ), #109, .T. ) ;
#171 = ORIENTED_EDGE ( 'NONE', *, *, #230, .T. ) ;
#172 = APPROVAL_ROLE ( '' ) ;
#173 = FACE_OUTER_BOUND ( 'NONE', #56, .T. ) ;
#174 = DIRECTION ( 'NONE',  ( -3.491481338843133355E-15, 1.224646799147353454E-16, -1.000000000000000000 ) ) ;
#175 = AXIS2_PLACEMENT_3D ( 'NONE', #106, #178, #62 ) ;
#176 = EDGE_CURVE ( 'NONE', #140, #140, #128, .T. ) ;
#177 = DIRECTION ( 'NONE',  ( 0.0000000000000000000, 1.000000000000000000, 0.0000000000000000000 ) ) ;
#178 = DIRECTION ( 'NONE',  ( 3.491481338843133355E-15, -1.224646799147353454E-16, 1.000000000000000000 ) ) ;
#179 = CARTESIAN_POINT ( 'NONE',  ( 3.491481338843133355E-14, -1.224646799147353454E-15, 10.00000000000000000 ) ) ;
#180 = CC_DESIGN_APPROVAL ( #112, ( #228 ) ) ;
#181 = CARTESIAN_POINT ( 'NONE',  ( -4.509891938700898928E-31, 1.581857152087917403E-32, -1.291684388665587067E-16 ) ) ;
#182 = EDGE_CURVE ( 'NONE', #114, #114, #264, .T. ) ;
#183 = ADVANCED_FACE ( 'NONE', ( #247 ), #227, .F. ) ;
#184 = LOCAL_TIME ( 10, 36, 57.00000000000000000, #21 ) ;
#185 = DIRECTION ( 'NONE',  ( 0.0000000000000000000, 1.000000000000000000, 0.0000000000000000000 ) ) ;
#186 = DIRECTION ( 'NONE',  ( 0.0000000000000000000, 0.0000000000000000000, 1.000000000000000000 ) ) ;
#187 = CIRCLE ( 'NONE', #193, 1.224162432702594616 ) ;
#188 = EDGE_LOOP ( 'NONE', ( #130 ) ) ;
#189 = CALENDAR_DATE ( 2021, 30, 11 ) ;
#190 = EDGE_LOOP ( 'NONE', ( #105 ) ) ;
#191 = CARTESIAN_POINT ( 'NONE',  ( -3.785471652766322713E-31, 1.224162432702594616, -1.084202172485504187E-16 ) ) ;
#192 = APPROVAL ( #270, 'UNSPECIFIED' ) ;
#193 = AXIS2_PLACEMENT_3D ( 'NONE', #13, #86, #154 ) ;
#194 = ORIENTED_EDGE ( 'NONE', *, *, #63, .F. ) ;
#195 = COORDINATED_UNIVERSAL_TIME_OFFSET ( 1, 0, .AHEAD. ) ;
#196 = CARTESIAN_POINT ( 'NONE',  ( 3.623617532978461367E-14, -1.270993937079632838E-15, 10.37845310145380751 ) ) ;
#197 = DATE_TIME_ROLE ( 'classification_date' ) ;
#198 = FACE_OUTER_BOUND ( 'NONE', #265, .T. ) ;
#199 = AXIS2_PLACEMENT_3D ( 'NONE', #181, #44, #293 ) ;
#200 = EDGE_LOOP ( 'NONE', ( #171 ) ) ;
#201 = DIRECTION ( 'NONE',  ( 0.0000000000000000000, 1.000000000000000000, 0.0000000000000000000 ) ) ;
#202 = COORDINATED_UNIVERSAL_TIME_OFFSET ( 1, 0, .AHEAD. ) ;
#203 = FACE_OUTER_BOUND ( 'NONE', #188, .T. ) ;
#204 = AXIS2_PLACEMENT_3D ( 'NONE', #196, #219, #149 ) ;
#205 = FACE_OUTER_BOUND ( 'NONE', #200, .T. ) ;
#206 = CC_DESIGN_PERSON_AND_ORGANIZATION_ASSIGNMENT ( #5, #99, ( #272 ) ) ;
#207 = CARTESIAN_POINT ( 'NONE',  ( 8.728703347107833388E-14, -3.061616997868383831E-15, 25.00000000000000000 ) ) ;
#208 = PLANE ( 'NONE',  #199 ) ;
#209 = VERTEX_POINT ( 'NONE', #169 ) ;
#210 = COORDINATED_UNIVERSAL_TIME_OFFSET ( 1, 0, .AHEAD. ) ;
#211 = CALENDAR_DATE ( 2021, 30, 11 ) ;
#212 = CARTESIAN_POINT ( 'NONE',  ( 9.482837466738113547E-14, -3.326131639679139872E-15, 27.15992596391809855 ) ) ;
#213 = EDGE_CURVE ( 'NONE', #258, #258, #222, .T. ) ;
#214 = DIRECTION ( 'NONE',  ( -3.491481338843133355E-15, 1.224646799147353454E-16, -1.000000000000000000 ) ) ;
#215 = ORIENTED_EDGE ( 'NONE', *, *, #88, .T. ) ;
#216 = LOCAL_TIME ( 10, 36, 57.00000000000000000, #244 ) ;
#217 = DIRECTION ( 'NONE',  ( 4.275831445896959482E-31, 1.000000000000000000, 1.224646799147353700E-16 ) ) ;
#218 = CALENDAR_DATE ( 2021, 30, 11 ) ;
#219 = DIRECTION ( 'NONE',  ( -3.491481338843133355E-15, 1.224646799147353454E-16, -1.000000000000000000 ) ) ;
#220 = FACE_OUTER_BOUND ( 'NONE', #23, .T. ) ;
#221 = DIRECTION ( 'NONE',  ( -3.491481338843133355E-15, 1.224646799147353454E-16, -1.000000000000000000 ) ) ;
#222 = CIRCLE ( 'NONE', #72, 1.149999999999999911 ) ;
#223 = DIRECTION ( 'NONE',  ( -4.221987455726497849E-31, -1.000000000000000000, -1.188383820773297762E-16 ) ) ;
#224 = DIRECTION ( 'NONE',  ( 0.0000000000000000000, 1.000000000000000000, 0.0000000000000000000 ) ) ;
#225 = APPROVAL_PERSON_ORGANIZATION ( #287, #192, #172 ) ;
#226 = CC_DESIGN_DATE_AND_TIME_ASSIGNMENT ( #166, #241, ( #24 ) ) ;
#227 = PLANE ( 'NONE',  #175 ) ;
#228 = PRODUCT_DEFINITION_FORMATION_WITH_SPECIFIED_SOURCE ( 'ANY', '', #92, .NOT_KNOWN. ) ;
#229 = DIRECTION ( 'NONE',  ( 3.491481338843133355E-15, -1.224646799147353454E-16, 1.000000000000000000 ) ) ;
#230 = EDGE_CURVE ( 'NONE', #303, #303, #187, .T. ) ;
#231 = FACE_OUTER_BOUND ( 'NONE', #27, .T. ) ;
#232 = CARTESIAN_POINT ( 'NONE',  ( 9.482837466738113547E-14, 1.499999999999992673, 27.15992596391809855 ) ) ;
#233 = CIRCLE ( 'NONE', #40, 1.368500000000000050 ) ;
#234 = CIRCLE ( 'NONE', #274, 1.149999999999998135 ) ;
#235 = PERSON_AND_ORGANIZATION_ROLE ( 'creator' ) ;
#236 = CARTESIAN_POINT ( 'NONE',  ( 2.129803616694311221E-13, 8.998558695971049855E-33, 61.00000000000000000 ) ) ;
#237 = EDGE_LOOP ( 'NONE', ( #1 ) ) ;
#238 = MANIFOLD_SOLID_BREP ( 'Corps-Déplacer/Copier1[2]', #160 ) ;
#239 = CARTESIAN_POINT ( 'NONE',  ( 8.728703347107833388E-16, 1.368499999999998940, 0.2500000000000000000 ) ) ;
#240 = AXIS2_PLACEMENT_3D ( 'NONE', #51, #76, #289 ) ;
#241 = DATE_TIME_ROLE ( 'creation_date' ) ;
#242 = EDGE_LOOP ( 'NONE', ( #58 ) ) ;
#243 = ORIENTED_EDGE ( 'NONE', *, *, #88, .F. ) ;
#244 = COORDINATED_UNIVERSAL_TIME_OFFSET ( 1, 0, .AHEAD. ) ;
#245 = FACE_OUTER_BOUND ( 'NONE', #259, .T. ) ;
#246 = AXIS2_PLACEMENT_3D ( 'NONE', #295, #126, #65 ) ;
#247 = FACE_OUTER_BOUND ( 'NONE', #168, .T. ) ;
#248 = ORGANIZATION ( 'UNSPECIFIED', 'UNSPECIFIED', '' ) ;
#249 = DIRECTION ( 'NONE',  ( 4.275831445896960358E-31, 1.000000000000000000, 1.224646799147353454E-16 ) ) ;
#250 = CIRCLE ( 'NONE', #240, 1.200000000000001510 ) ;
#251 = ORIENTED_EDGE ( 'NONE', *, *, #52, .F. ) ;
#252 = FACE_OUTER_BOUND ( 'NONE', #117, .T. ) ;
#253 = UNCERTAINTY_MEASURE_WITH_UNIT (LENGTH_MEASURE( 1.000000000000000082E-05 ), #260, 'distance_accuracy_value', 'NONE');
#254 = PERSON_AND_ORGANIZATION_ROLE ( 'design_owner' ) ;
#255 =( NAMED_UNIT ( * ) SI_UNIT ( $, .STERADIAN. ) SOLID_ANGLE_UNIT ( ) );
#256 = CC_DESIGN_PERSON_AND_ORGANIZATION_ASSIGNMENT ( #150, #75, ( #228 ) ) ;
#257 = DIRECTION ( 'NONE',  ( 4.275831445896959482E-31, 1.000000000000000000, 1.224646799147353454E-16 ) ) ;
#258 = VERTEX_POINT ( 'NONE', #67 ) ;
#259 = EDGE_LOOP ( 'NONE', ( #144 ) ) ;
#260 =( LENGTH_UNIT ( ) NAMED_UNIT ( * ) SI_UNIT ( .MILLI., .METRE. ) );
#261 = ORIENTED_EDGE ( 'NONE', *, *, #147, .F. ) ;
#262 = SECURITY_CLASSIFICATION_LEVEL ( 'unclassified' ) ;
#263 = ORIENTED_EDGE ( 'NONE', *, *, #91, .T. ) ;
#264 = CIRCLE ( 'NONE', #290, 1.500000000000001332 ) ;
#265 = EDGE_LOOP ( 'NONE', ( #96 ) ) ;
#266 = DATE_AND_TIME ( #61, #85 ) ;
#267 = DIRECTION ( 'NONE',  ( 0.0000000000000000000, -1.000000000000000000, 0.0000000000000000000 ) ) ;
#268 = ADVANCED_FACE ( 'NONE', ( #245, #269 ), #3, .T. ) ;
#269 = FACE_BOUND ( 'NONE', #190, .T. ) ;
#270 = APPROVAL_STATUS ( 'not_yet_approved' ) ;
#271 = CARTESIAN_POINT ( 'NONE',  ( 3.623617532978461367E-14, -1.270993937079632838E-15, 10.37845310145380751 ) ) ;
#272 = SECURITY_CLASSIFICATION ( '', '', #262 ) ;
#273 = FACE_OUTER_BOUND ( 'NONE', #49, .T. ) ;
#274 = AXIS2_PLACEMENT_3D ( 'NONE', #271, #38, #104 ) ;
#275 = LOCAL_TIME ( 10, 36, 57.00000000000000000, #210 ) ;
#276 = ADVANCED_FACE ( 'NONE', ( #60, #102 ), #167, .T. ) ;
#277 = DIRECTION ( 'NONE',  ( 1.000000000000000000, 0.0000000000000000000, 0.0000000000000000000 ) ) ;
#278 = PERSON_AND_ORGANIZATION ( #103, #248 ) ;
#279 = CC_DESIGN_PERSON_AND_ORGANIZATION_ASSIGNMENT ( #50, #235, ( #24 ) ) ;
#280 = APPLICATION_PROTOCOL_DEFINITION ( 'international standard', 'config_control_design', 1994, #36 ) ;
#281 = VERTEX_POINT ( 'NONE', #161 ) ;
#282 = EDGE_LOOP ( 'NONE', ( #194 ) ) ;
#283 = APPROVAL_PERSON_ORGANIZATION ( #116, #29, #111 ) ;
#284 = ORIENTED_EDGE ( 'NONE', *, *, #138, .T. ) ;
#285 = ADVANCED_FACE ( 'NONE', ( #12, #203 ), #294, .T. ) ;
#286 = CARTESIAN_POINT ( 'NONE',  ( 8.728703347107833388E-14, -3.035766082959412415E-15, 25.00000000000000000 ) ) ;
#287 = PERSON_AND_ORGANIZATION ( #103, #248 ) ;
#288 = AXIS2_PLACEMENT_3D ( 'NONE', #6, #146, #217 ) ;
#289 = DIRECTION ( 'NONE',  ( 0.0000000000000000000, 1.000000000000000000, 0.0000000000000000000 ) ) ;
#290 = AXIS2_PLACEMENT_3D ( 'NONE', #108, #59, #224 ) ;
#291 = FACE_OUTER_BOUND ( 'NONE', #237, .T. ) ;
#292 = PRODUCT_RELATED_PRODUCT_CATEGORY ( 'detail', '', ( #92 ) ) ;
#293 = DIRECTION ( 'NONE',  ( -4.275831445896959482E-31, -1.000000000000000000, -1.224646799147353454E-16 ) ) ;
#294 = CYLINDRICAL_SURFACE ( 'NONE', #83, 1.499999999999998668 ) ;
#295 = CARTESIAN_POINT ( 'NONE',  ( 8.728703347107827472E-16, -3.061616997868381785E-17, 0.2499999999999998335 ) ) ;
#296 = AXIS2_PLACEMENT_3D ( 'NONE', #179, #221, #177 ) ;
#297 = AXIS2_PLACEMENT_3D ( 'NONE', #132, #81, #101 ) ;
#298 = ADVANCED_FACE ( 'NONE', ( #127, #231 ), #54, .T. ) ;
#299 = DIRECTION ( 'NONE',  ( -4.275831445896959482E-31, -1.000000000000000000, -1.224646799147353454E-16 ) ) ;
#300 = TOROIDAL_SURFACE ( 'NONE', #41, 3.149999999999999911, 2.000000000000000444 ) ;
#301 = VERTEX_POINT ( 'NONE', #143 ) ;
#302 = CC_DESIGN_SECURITY_CLASSIFICATION ( #272, ( #228 ) ) ;
#303 = VERTEX_POINT ( 'NONE', #191 ) ;
ENDSEC;
END-ISO-10303-21;
