ISO-10303-21;
HEADER;
FILE_DESCRIPTION (( 'STEP AP203' ),
    '1' );
FILE_NAME ('326988.step',
    '2021-11-30T09:36:56',
    ( '' ),
    ( '' ),
    'SwSTEP 2.0',
    'SolidWorks 2019',
    '' );
FILE_SCHEMA (( 'CONFIG_CONTROL_DESIGN' ));
ENDSEC;

DATA;
#1 = ADVANCED_BREP_SHAPE_REPRESENTATION ( '326988', ( #160, #116, #189 ), #147 ) ;
#2 = AXIS2_PLACEMENT_3D ( 'NONE', #152, #252, #227 ) ;
#3 = ADVANCED_FACE ( 'NONE', ( #15, #292 ), #284, .T. ) ;
#4 = CARTESIAN_POINT ( 'NONE',  ( 0.0000000000000000000, 0.0000000000000000000, 0.0000000000000000000 ) ) ;
#5 = VERTEX_POINT ( 'NONE', #285 ) ;
#6 = AXIS2_PLACEMENT_3D ( 'NONE', #246, #290, #223 ) ;
#7 = CC_DESIGN_APPROVAL ( #235, ( #88 ) ) ;
#8 = CC_DESIGN_PERSON_AND_ORGANIZATION_ASSIGNMENT ( #47, #286, ( #97 ) ) ;
#9 = EDGE_LOOP ( 'NONE', ( #172 ) ) ;
#10 = PLANE ( 'NONE',  #6 ) ;
#11 = PERSON_AND_ORGANIZATION ( #191, #233 ) ;
#12 = AXIS2_PLACEMENT_3D ( 'NONE', #283, #281, #240 ) ;
#13 = EDGE_LOOP ( 'NONE', ( #122 ) ) ;
#14 = EDGE_LOOP ( 'NONE', ( #220 ) ) ;
#15 = FACE_BOUND ( 'NONE', #14, .T. ) ;
#16 = CARTESIAN_POINT ( 'NONE',  ( 0.0000000000000000000, 0.0000000000000000000, 0.0000000000000000000 ) ) ;
#17 = CC_DESIGN_PERSON_AND_ORGANIZATION_ASSIGNMENT ( #297, #96, ( #88 ) ) ;
#18 = SECURITY_CLASSIFICATION_LEVEL ( 'unclassified' ) ;
#19 = PLANE ( 'NONE',  #293 ) ;
#20 = DATE_TIME_ROLE ( 'creation_date' ) ;
#21 = DIRECTION ( 'NONE',  ( 3.491481338843133355E-15, -1.224646799147353454E-16, 1.000000000000000000 ) ) ;
#22 = CARTESIAN_POINT ( 'NONE',  ( 3.620593821442183232E-14, -1.269933361840907991E-15, 10.36979284741596352 ) ) ;
#23 = LOCAL_TIME ( 10, 36, 56.00000000000000000, #131 ) ;
#24 = DIRECTION ( 'NONE',  ( 0.0000000000000000000, 1.000000000000000000, 0.0000000000000000000 ) ) ;
#25 = COORDINATED_UNIVERSAL_TIME_OFFSET ( 1, 0, .AHEAD. ) ;
#26 = CARTESIAN_POINT ( 'NONE',  ( 8.728703347107833388E-14, 1.149999999999997025, 25.00000000000000000 ) ) ;
#27 = AXIS2_PLACEMENT_3D ( 'NONE', #34, #199, #123 ) ;
#28 = APPROVAL_STATUS ( 'not_yet_approved' ) ;
#29 = VERTEX_POINT ( 'NONE', #120 ) ;
#30 = EDGE_CURVE ( 'NONE', #29, #29, #179, .T. ) ;
#31 = AXIS2_PLACEMENT_3D ( 'NONE', #133, #277, #234 ) ;
#32 = DIRECTION ( 'NONE',  ( -3.491481338843133355E-15, 1.224646799147353454E-16, -1.000000000000000000 ) ) ;
#33 = APPROVAL_DATE_TIME ( #243, #99 ) ;
#34 = CARTESIAN_POINT ( 'NONE',  ( 8.728703347107833388E-14, -3.061616997868383831E-15, 25.00000000000000000 ) ) ;
#35 = ORIENTED_EDGE ( 'NONE', *, *, #56, .T. ) ;
#36 = EDGE_CURVE ( 'NONE', #93, #93, #153, .T. ) ;
#37 = CIRCLE ( 'NONE', #27, 1.149999999999999911 ) ;
#38 = ORIENTED_EDGE ( 'NONE', *, *, #165, .F. ) ;
#39 = EDGE_LOOP ( 'NONE', ( #174 ) ) ;
#40 = CC_DESIGN_DATE_AND_TIME_ASSIGNMENT ( #43, #20, ( #88 ) ) ;
#41 = FACE_OUTER_BOUND ( 'NONE', #76, .T. ) ;
#42 = CIRCLE ( 'NONE', #137, 1.363499999999999934 ) ;
#43 = DATE_AND_TIME ( #60, #159 ) ;
#44 = CARTESIAN_POINT ( 'NONE',  ( 3.491481338843133355E-14, 1.022461231829719801E-32, 10.00000000000000000 ) ) ;
#45 = DIRECTION ( 'NONE',  ( -3.491481338843133355E-15, 1.224646799147353454E-16, -1.000000000000000000 ) ) ;
#46 = DIRECTION ( 'NONE',  ( -3.491481338843133355E-15, 1.224646799147353454E-16, -1.000000000000000000 ) ) ;
#47 = PERSON_AND_ORGANIZATION ( #191, #233 ) ;
#48 = CARTESIAN_POINT ( 'NONE',  ( 3.491481338843133355E-14, 1.363499999999998602, 10.00000000000000000 ) ) ;
#49 = AXIS2_PLACEMENT_3D ( 'NONE', #103, #51, #245 ) ;
#50 = DATE_AND_TIME ( #219, #23 ) ;
#51 = DIRECTION ( 'NONE',  ( -3.491481338843133355E-15, 1.224646799147353454E-16, -1.000000000000000000 ) ) ;
#52 = EDGE_LOOP ( 'NONE', ( #57 ) ) ;
#53 = EDGE_LOOP ( 'NONE', ( #202 ) ) ;
#54 = CIRCLE ( 'NONE', #72, 1.180384493975579652 ) ;
#55 = EDGE_LOOP ( 'NONE', ( #98 ) ) ;
#56 = EDGE_CURVE ( 'NONE', #163, #163, #173, .T. ) ;
#57 = ORIENTED_EDGE ( 'NONE', *, *, #30, .T. ) ;
#58 = CALENDAR_DATE ( 2021, 30, 11 ) ;
#59 = DIRECTION ( 'NONE',  ( 0.0000000000000000000, 1.000000000000000000, 0.0000000000000000000 ) ) ;
#60 = CALENDAR_DATE ( 2021, 30, 11 ) ;
#61 = CARTESIAN_POINT ( 'NONE',  ( 3.491481338843133355E-14, -1.224646799147353454E-15, 10.00000000000000000 ) ) ;
#62 = AXIS2_PLACEMENT_3D ( 'NONE', #278, #178, #135 ) ;
#63 = DIRECTION ( 'NONE',  ( 4.275831445896959482E-31, 1.000000000000000000, 1.224646799147353454E-16 ) ) ;
#64 = DIRECTION ( 'NONE',  ( 0.0000000000000000000, 1.000000000000000000, 0.0000000000000000000 ) ) ;
#65 = CARTESIAN_POINT ( 'NONE',  ( 8.849961221477468513E-14, -3.104148534859897150E-15, 25.34729635533384240 ) ) ;
#66 = CONICAL_SURFACE ( 'NONE', #110, 1.200000000000001510, 0.7853981633974453924 ) ;
#67 = EDGE_CURVE ( 'NONE', #185, #185, #37, .T. ) ;
#68 = CARTESIAN_POINT ( 'NONE',  ( 0.0000000000000000000, 1.219162432702594501, 0.0000000000000000000 ) ) ;
#69 =( NAMED_UNIT ( * ) PLANE_ANGLE_UNIT ( ) SI_UNIT ( $, .RADIAN. ) );
#70 = CYLINDRICAL_SURFACE ( 'NONE', #294, 1.363499999999999268 ) ;
#71 = APPROVAL_PERSON_ORGANIZATION ( #225, #99, #177 ) ;
#72 = AXIS2_PLACEMENT_3D ( 'NONE', #65, #45, #64 ) ;
#73 =( LENGTH_UNIT ( ) NAMED_UNIT ( * ) SI_UNIT ( .MILLI., .METRE. ) );
#74 = DIRECTION ( 'NONE',  ( 0.0000000000000000000, 1.000000000000000000, 0.0000000000000000000 ) ) ;
#75 = SHAPE_DEFINITION_REPRESENTATION ( #215, #1 ) ;
#76 = EDGE_LOOP ( 'NONE', ( #268 ) ) ;
#77 = EDGE_LOOP ( 'NONE', ( #125 ) ) ;
#78 = ORIENTED_EDGE ( 'NONE', *, *, #67, .T. ) ;
#79 = ADVANCED_FACE ( 'NONE', ( #217 ), #10, .F. ) ;
#80 = AXIS2_PLACEMENT_3D ( 'NONE', #254, #251, #63 ) ;
#81 = DIRECTION ( 'NONE',  ( 3.491481338843133355E-15, -1.224646799147353454E-16, 1.000000000000000000 ) ) ;
#82 = CARTESIAN_POINT ( 'NONE',  ( 8.728703347107833388E-14, -3.035766082959412415E-15, 25.00000000000000000 ) ) ;
#83 = APPROVAL_ROLE ( '' ) ;
#84 = DIRECTION ( 'NONE',  ( 4.275831445896959482E-31, 1.000000000000000000, 1.224646799147353454E-16 ) ) ;
#85 = FACE_OUTER_BOUND ( 'NONE', #100, .T. ) ;
#86 = DIRECTION ( 'NONE',  ( -4.275831445896959482E-31, -1.000000000000000000, -1.224646799147353454E-16 ) ) ;
#87 = DIRECTION ( 'NONE',  ( -3.491481338843133355E-15, 1.224646799147353454E-16, -1.000000000000000000 ) ) ;
#88 = PRODUCT_DEFINITION ( 'UNKNOWN', '', #242, #298 ) ;
#89 = FACE_OUTER_BOUND ( 'NONE', #200, .T. ) ;
#90 = CIRCLE ( 'NONE', #2, 1.363499999999999934 ) ;
#91 = CARTESIAN_POINT ( 'NONE',  ( 2.119329172677781757E-13, 1.499999999999994005, 60.69999999999999574 ) ) ;
#92 = APPROVAL_DATE_TIME ( #211, #235 ) ;
#93 = VERTEX_POINT ( 'NONE', #261 ) ;
#94 = MECHANICAL_CONTEXT ( 'NONE', #201, 'mechanical' ) ;
#95 = APPLICATION_CONTEXT ( 'configuration controlled 3d designs of mechanical parts and assemblies' ) ;
#96 = PERSON_AND_ORGANIZATION_ROLE ( 'creator' ) ;
#97 = PRODUCT ( '326988', '326988', '', ( #94 ) ) ;
#98 = ORIENTED_EDGE ( 'NONE', *, *, #36, .F. ) ;
#99 = APPROVAL ( #241, 'UNSPECIFIED' ) ;
#100 = EDGE_LOOP ( 'NONE', ( #247 ) ) ;
#101 = AXIS2_PLACEMENT_3D ( 'NONE', #82, #181, #84 ) ;
#102 = DATE_AND_TIME ( #58, #248 ) ;
#103 = CARTESIAN_POINT ( 'NONE',  ( 2.119329172677781757E-13, -7.433606070824434221E-15, 60.69999999999999574 ) ) ;
#104 = EDGE_LOOP ( 'NONE', ( #142 ) ) ;
#105 = EDGE_LOOP ( 'NONE', ( #250 ) ) ;
#106 = DIRECTION ( 'NONE',  ( 4.275831445896959482E-31, 1.000000000000000000, 1.224646799147353454E-16 ) ) ;
#107 = CYLINDRICAL_SURFACE ( 'NONE', #249, 1.499999999999998668 ) ;
#108 = ADVANCED_FACE ( 'NONE', ( #302, #231 ), #196, .F. ) ;
#109 = FACE_OUTER_BOUND ( 'NONE', #270, .T. ) ;
#110 = AXIS2_PLACEMENT_3D ( 'NONE', #229, #87, #59 ) ;
#111 = LOCAL_TIME ( 10, 36, 56.00000000000000000, #128 ) ;
#112 = PLANE ( 'NONE',  #80 ) ;
#113 = ADVANCED_FACE ( 'NONE', ( #300 ), #112, .F. ) ;
#114 = DIRECTION ( 'NONE',  ( -3.491481338843133355E-15, 1.224646799147353454E-16, -1.000000000000000000 ) ) ;
#115 = CALENDAR_DATE ( 2021, 30, 11 ) ;
#116 = MANIFOLD_SOLID_BREP ( 'Corps-Déplacer/Copier1[2]', #237 ) ;
#117 = APPLICATION_PROTOCOL_DEFINITION ( 'international standard', 'config_control_design', 1994, #201 ) ;
#118 = CIRCLE ( 'NONE', #12, 1.363499999999998602 ) ;
#119 = EDGE_CURVE ( 'NONE', #186, #186, #271, .T. ) ;
#120 = CARTESIAN_POINT ( 'NONE',  ( 9.482837466738113547E-14, 1.499999999999992673, 27.15992596391809855 ) ) ;
#121 = CARTESIAN_POINT ( 'NONE',  ( 0.0000000000000000000, 0.0000000000000000000, 0.0000000000000000000 ) ) ;
#122 = ORIENTED_EDGE ( 'NONE', *, *, #67, .F. ) ;
#123 = DIRECTION ( 'NONE',  ( 0.0000000000000000000, 1.000000000000000000, 0.0000000000000000000 ) ) ;
#124 = ORIENTED_EDGE ( 'NONE', *, *, #30, .F. ) ;
#125 = ORIENTED_EDGE ( 'NONE', *, *, #138, .T. ) ;
#126 = EDGE_LOOP ( 'NONE', ( #78 ) ) ;
#127 = CYLINDRICAL_SURFACE ( 'NONE', #224, 1.149999999999999023 ) ;
#128 = COORDINATED_UNIVERSAL_TIME_OFFSET ( 1, 0, .AHEAD. ) ;
#129 = AXIS2_PLACEMENT_3D ( 'NONE', #253, #155, #180 ) ;
#130 = DIRECTION ( 'NONE',  ( -3.491481338843133355E-15, 1.224646799147353454E-16, -1.000000000000000000 ) ) ;
#131 = COORDINATED_UNIVERSAL_TIME_OFFSET ( 1, 0, .AHEAD. ) ;
#132 = DIRECTION ( 'NONE',  ( 3.491481338843133355E-15, -1.224646799147353454E-16, 1.000000000000000000 ) ) ;
#133 = CARTESIAN_POINT ( 'NONE',  ( 3.491481338843133355E-14, 1.022461231829719801E-32, 10.00000000000000000 ) ) ;
#134 = ADVANCED_FACE ( 'NONE', ( #85, #208 ), #301, .T. ) ;
#135 = DIRECTION ( 'NONE',  ( 4.275831445896959482E-31, 1.000000000000000000, 1.224646799147353207E-16 ) ) ;
#136 = APPLICATION_PROTOCOL_DEFINITION ( 'international standard', 'config_control_design', 1994, #95 ) ;
#137 = AXIS2_PLACEMENT_3D ( 'NONE', #61, #154, #206 ) ;
#138 = EDGE_CURVE ( 'NONE', #161, #161, #54, .T. ) ;
#139 = VERTEX_POINT ( 'NONE', #48 ) ;
#140 =( NAMED_UNIT ( * ) SI_UNIT ( $, .STERADIAN. ) SOLID_ANGLE_UNIT ( ) );
#141 = PERSON_AND_ORGANIZATION_ROLE ( 'design_supplier' ) ;
#142 = ORIENTED_EDGE ( 'NONE', *, *, #165, .T. ) ;
#143 = DATE_TIME_ROLE ( 'classification_date' ) ;
#144 = DIRECTION ( 'NONE',  ( 0.0000000000000000000, 1.000000000000000000, 0.0000000000000000000 ) ) ;
#145 = EDGE_LOOP ( 'NONE', ( #195 ) ) ;
#146 = CC_DESIGN_SECURITY_CLASSIFICATION ( #188, ( #242 ) ) ;
#147 =( GEOMETRIC_REPRESENTATION_CONTEXT ( 3 ) GLOBAL_UNCERTAINTY_ASSIGNED_CONTEXT ( ( #226 ) ) GLOBAL_UNIT_ASSIGNED_CONTEXT ( ( #73, #69, #140 ) ) REPRESENTATION_CONTEXT ( 'NONE', 'WORKASPACE' ) );
#148 = ORIENTED_EDGE ( 'NONE', *, *, #279, .F. ) ;
#149 = EDGE_LOOP ( 'NONE', ( #124 ) ) ;
#150 = PERSON_AND_ORGANIZATION ( #191, #233 ) ;
#151 = CC_DESIGN_DATE_AND_TIME_ASSIGNMENT ( #50, #143, ( #188 ) ) ;
#152 = CARTESIAN_POINT ( 'NONE',  ( 3.491481338843133355E-14, -1.224646799147353454E-15, 10.00000000000000000 ) ) ;
#153 = CIRCLE ( 'NONE', #169, 1.200000000000001510 ) ;
#154 = DIRECTION ( 'NONE',  ( -3.491481338843133355E-15, 1.224646799147353454E-16, -1.000000000000000000 ) ) ;
#155 = DIRECTION ( 'NONE',  ( -3.491481338843133355E-15, 1.224646799147353454E-16, -1.000000000000000000 ) ) ;
#156 = FACE_OUTER_BOUND ( 'NONE', #149, .T. ) ;
#157 = CIRCLE ( 'NONE', #256, 1.149999999999998135 ) ;
#158 = VERTEX_POINT ( 'NONE', #212 ) ;
#159 = LOCAL_TIME ( 10, 36, 56.00000000000000000, #192 ) ;
#160 = MANIFOLD_SOLID_BREP ( 'Corps-Déplacer/Copier1[1]', #260 ) ;
#161 = VERTEX_POINT ( 'NONE', #239 ) ;
#162 = DIRECTION ( 'NONE',  ( 0.0000000000000000000, 0.0000000000000000000, 1.000000000000000000 ) ) ;
#163 = VERTEX_POINT ( 'NONE', #91 ) ;
#164 = CC_DESIGN_APPROVAL ( #287, ( #242 ) ) ;
#165 = EDGE_CURVE ( 'NONE', #259, #259, #157, .T. ) ;
#166 = APPROVAL_DATE_TIME ( #102, #287 ) ;
#167 = PERSON_AND_ORGANIZATION ( #191, #233 ) ;
#168 = EDGE_LOOP ( 'NONE', ( #38 ) ) ;
#169 = AXIS2_PLACEMENT_3D ( 'NONE', #266, #288, #74 ) ;
#170 = CARTESIAN_POINT ( 'NONE',  ( 8.728703347107827472E-16, -3.061616997868381785E-17, 0.2499999999999998335 ) ) ;
#171 = ADVANCED_FACE ( 'NONE', ( #41 ), #19, .F. ) ;
#172 = ORIENTED_EDGE ( 'NONE', *, *, #56, .F. ) ;
#173 = CIRCLE ( 'NONE', #49, 1.500000000000001332 ) ;
#174 = ORIENTED_EDGE ( 'NONE', *, *, #138, .F. ) ;
#175 = ADVANCED_FACE ( 'NONE', ( #156, #255 ), #107, .T. ) ;
#176 = CARTESIAN_POINT ( 'NONE',  ( 9.482837466738113547E-14, -3.326131639679139872E-15, 27.15992596391809855 ) ) ;
#177 = APPROVAL_ROLE ( '' ) ;
#178 = DIRECTION ( 'NONE',  ( -3.491481338843133355E-15, 1.224646799147353454E-16, -1.000000000000000000 ) ) ;
#179 = CIRCLE ( 'NONE', #289, 1.499999999999996003 ) ;
#180 = DIRECTION ( 'NONE',  ( 0.0000000000000000000, 1.000000000000000000, 0.0000000000000000000 ) ) ;
#181 = DIRECTION ( 'NONE',  ( -3.491481338843133355E-15, 1.224646799147353454E-16, -1.000000000000000000 ) ) ;
#182 = FACE_OUTER_BOUND ( 'NONE', #168, .T. ) ;
#183 = AXIS2_PLACEMENT_3D ( 'NONE', #170, #81, #273 ) ;
#184 = DIRECTION ( 'NONE',  ( -3.491481338843133355E-15, 1.224646799147353454E-16, -1.000000000000000000 ) ) ;
#185 = VERTEX_POINT ( 'NONE', #26 ) ;
#186 = VERTEX_POINT ( 'NONE', #68 ) ;
#187 = CARTESIAN_POINT ( 'NONE',  ( 3.620593821442183232E-14, 1.149999999999997025, 10.36979284741596352 ) ) ;
#188 = SECURITY_CLASSIFICATION ( '', '', #18 ) ;
#189 = AXIS2_PLACEMENT_3D ( 'NONE', #121, #162, #213 ) ;
#190 = FACE_OUTER_BOUND ( 'NONE', #53, .T. ) ;
#191 = PERSON ( 'UNSPECIFIED', 'UNSPECIFIED', 'UNSPECIFIED', ('UNSPECIFIED'), ('UNSPECIFIED'), ('UNSPECIFIED') ) ;
#192 = COORDINATED_UNIVERSAL_TIME_OFFSET ( 1, 0, .AHEAD. ) ;
#193 = CARTESIAN_POINT ( 'NONE',  ( 9.482837466738113547E-14, -3.326131639679139872E-15, 27.15992596391809855 ) ) ;
#194 = PERSON_AND_ORGANIZATION_ROLE ( 'classification_officer' ) ;
#195 = ORIENTED_EDGE ( 'NONE', *, *, #279, .T. ) ;
#196 = TOROIDAL_SURFACE ( 'NONE', #101, 3.149999999999999911, 2.000000000000000444 ) ;
#197 = APPROVAL_PERSON_ORGANIZATION ( #238, #235, #236 ) ;
#198 = ADVANCED_FACE ( 'NONE', ( #109 ), #205, .T. ) ;
#199 = DIRECTION ( 'NONE',  ( -3.491481338843133355E-15, 1.224646799147353454E-16, -1.000000000000000000 ) ) ;
#200 = EDGE_LOOP ( 'NONE', ( #148 ) ) ;
#201 = APPLICATION_CONTEXT ( 'configuration controlled 3d designs of mechanical parts and assemblies' ) ;
#202 = ORIENTED_EDGE ( 'NONE', *, *, #230, .T. ) ;
#203 = ADVANCED_FACE ( 'NONE', ( #209, #303 ), #66, .T. ) ;
#204 = DIRECTION ( 'NONE',  ( 4.275831445896960358E-31, 1.000000000000000000, 1.224646799147353454E-16 ) ) ;
#205 = PLANE ( 'NONE',  #31 ) ;
#206 = DIRECTION ( 'NONE',  ( 0.0000000000000000000, 1.000000000000000000, 0.0000000000000000000 ) ) ;
#207 = APPROVAL_PERSON_ORGANIZATION ( #167, #287, #83 ) ;
#208 = FACE_BOUND ( 'NONE', #104, .T. ) ;
#209 = FACE_OUTER_BOUND ( 'NONE', #9, .T. ) ;
#210 = CC_DESIGN_PERSON_AND_ORGANIZATION_ASSIGNMENT ( #264, #141, ( #242 ) ) ;
#211 = DATE_AND_TIME ( #115, #272 ) ;
#212 = CARTESIAN_POINT ( 'NONE',  ( 3.491481338843133355E-14, 1.363499999999998602, 10.00000000000000000 ) ) ;
#213 = DIRECTION ( 'NONE',  ( 1.000000000000000000, 0.0000000000000000000, 0.0000000000000000000 ) ) ;
#214 = ORIENTED_EDGE ( 'NONE', *, *, #230, .F. ) ;
#215 = PRODUCT_DEFINITION_SHAPE ( 'NONE', 'NONE',  #88 ) ;
#216 = APPROVAL_STATUS ( 'not_yet_approved' ) ;
#217 = FACE_OUTER_BOUND ( 'NONE', #291, .T. ) ;
#218 = ADVANCED_FACE ( 'NONE', ( #182, #280 ), #127, .T. ) ;
#219 = CALENDAR_DATE ( 2021, 30, 11 ) ;
#220 = ORIENTED_EDGE ( 'NONE', *, *, #119, .F. ) ;
#221 = ADVANCED_FACE ( 'NONE', ( #295, #275 ), #276, .T. ) ;
#222 = ORIENTED_EDGE ( 'NONE', *, *, #119, .T. ) ;
#223 = DIRECTION ( 'NONE',  ( -4.275831445896959482E-31, -1.000000000000000000, -1.224646799147353454E-16 ) ) ;
#224 = AXIS2_PLACEMENT_3D ( 'NONE', #16, #130, #106 ) ;
#225 = PERSON_AND_ORGANIZATION ( #191, #233 ) ;
#226 = UNCERTAINTY_MEASURE_WITH_UNIT (LENGTH_MEASURE( 1.000000000000000082E-05 ), #73, 'distance_accuracy_value', 'NONE');
#227 = DIRECTION ( 'NONE',  ( 0.0000000000000000000, 1.000000000000000000, 0.0000000000000000000 ) ) ;
#228 = CALENDAR_DATE ( 2021, 30, 11 ) ;
#229 = CARTESIAN_POINT ( 'NONE',  ( 2.129803616694311221E-13, -7.470345474798856659E-15, 61.00000000000000000 ) ) ;
#230 = EDGE_CURVE ( 'NONE', #139, #139, #90, .T. ) ;
#231 = FACE_OUTER_BOUND ( 'NONE', #77, .T. ) ;
#232 = CC_DESIGN_APPROVAL ( #99, ( #188 ) ) ;
#233 = ORGANIZATION ( 'UNSPECIFIED', 'UNSPECIFIED', '' ) ;
#234 = DIRECTION ( 'NONE',  ( -4.275831445896959482E-31, -1.000000000000000000, -1.224646799147353454E-16 ) ) ;
#235 = APPROVAL ( #28, 'UNSPECIFIED' ) ;
#236 = APPROVAL_ROLE ( '' ) ;
#237 = CLOSED_SHELL ( 'NONE', ( #79, #3, #282, #198 ) ) ;
#238 = PERSON_AND_ORGANIZATION ( #191, #233 ) ;
#239 = CARTESIAN_POINT ( 'NONE',  ( 8.849961221477468513E-14, 1.180384493975576543, 25.34729635533384240 ) ) ;
#240 = DIRECTION ( 'NONE',  ( 4.237469624614384346E-31, 1.000000000000000000, 1.192741663900446057E-16 ) ) ;
#241 = APPROVAL_STATUS ( 'not_yet_approved' ) ;
#242 = PRODUCT_DEFINITION_FORMATION_WITH_SPECIFIED_SOURCE ( 'ANY', '', #97, .NOT_KNOWN. ) ;
#243 = DATE_AND_TIME ( #228, #111 ) ;
#244 = PRODUCT_RELATED_PRODUCT_CATEGORY ( 'detail', '', ( #97 ) ) ;
#245 = DIRECTION ( 'NONE',  ( 0.0000000000000000000, 1.000000000000000000, 0.0000000000000000000 ) ) ;
#246 = CARTESIAN_POINT ( 'NONE',  ( -2.606466533702994558E-31, 9.142253925497726621E-33, -7.465216854249664123E-17 ) ) ;
#247 = ORIENTED_EDGE ( 'NONE', *, *, #257, .F. ) ;
#248 = LOCAL_TIME ( 10, 36, 56.00000000000000000, #267 ) ;
#249 = AXIS2_PLACEMENT_3D ( 'NONE', #274, #46, #204 ) ;
#250 = ORIENTED_EDGE ( 'NONE', *, *, #36, .T. ) ;
#251 = DIRECTION ( 'NONE',  ( -3.491481338843133355E-15, 1.224646799147353454E-16, -1.000000000000000000 ) ) ;
#252 = DIRECTION ( 'NONE',  ( -3.491481338843133355E-15, 1.224646799147353454E-16, -1.000000000000000000 ) ) ;
#253 = CARTESIAN_POINT ( 'NONE',  ( 3.620593821442183232E-14, -1.269933361840907991E-15, 10.36979284741596352 ) ) ;
#254 = CARTESIAN_POINT ( 'NONE',  ( 2.129803616694311221E-13, 8.998558695971049855E-33, 61.00000000000000000 ) ) ;
#255 = FACE_OUTER_BOUND ( 'NONE', #269, .T. ) ;
#256 = AXIS2_PLACEMENT_3D ( 'NONE', #22, #114, #24 ) ;
#257 = EDGE_CURVE ( 'NONE', #158, #158, #42, .T. ) ;
#258 = DIRECTION ( 'NONE',  ( 4.275831445896959482E-31, 1.000000000000000000, 1.224646799147353454E-16 ) ) ;
#259 = VERTEX_POINT ( 'NONE', #187 ) ;
#260 = CLOSED_SHELL ( 'NONE', ( #171, #134, #218, #108, #221, #175, #203, #113 ) ) ;
#261 = CARTESIAN_POINT ( 'NONE',  ( 2.129803616694311221E-13, 1.199999999999993960, 61.00000000000000000 ) ) ;
#262 = PERSON_AND_ORGANIZATION_ROLE ( 'creator' ) ;
#263 = CC_DESIGN_PERSON_AND_ORGANIZATION_ASSIGNMENT ( #11, #262, ( #242 ) ) ;
#264 = PERSON_AND_ORGANIZATION ( #191, #233 ) ;
#265 = AXIS2_PLACEMENT_3D ( 'NONE', #176, #132, #299 ) ;
#266 = CARTESIAN_POINT ( 'NONE',  ( 2.129803616694311221E-13, -7.470345474798856659E-15, 61.00000000000000000 ) ) ;
#267 = COORDINATED_UNIVERSAL_TIME_OFFSET ( 1, 0, .AHEAD. ) ;
#268 = ORIENTED_EDGE ( 'NONE', *, *, #257, .T. ) ;
#269 = EDGE_LOOP ( 'NONE', ( #35 ) ) ;
#270 = EDGE_LOOP ( 'NONE', ( #214 ) ) ;
#271 = CIRCLE ( 'NONE', #62, 1.219162432702594501 ) ;
#272 = LOCAL_TIME ( 10, 36, 56.00000000000000000, #25 ) ;
#273 = DIRECTION ( 'NONE',  ( -4.237469624614384346E-31, -1.000000000000000000, -1.192741663900446057E-16 ) ) ;
#274 = CARTESIAN_POINT ( 'NONE',  ( 0.0000000000000000000, 0.0000000000000000000, 0.0000000000000000000 ) ) ;
#275 = FACE_OUTER_BOUND ( 'NONE', #52, .T. ) ;
#276 = CONICAL_SURFACE ( 'NONE', #265, 1.499999999999996003, 0.1745329251994264252 ) ;
#277 = DIRECTION ( 'NONE',  ( 3.491481338843133355E-15, -1.224646799147353454E-16, 1.000000000000000000 ) ) ;
#278 = CARTESIAN_POINT ( 'NONE',  ( -5.212933067405989115E-31, 1.828450785099545324E-32, -1.493043370849932825E-16 ) ) ;
#279 = EDGE_CURVE ( 'NONE', #5, #5, #118, .T. ) ;
#280 = FACE_OUTER_BOUND ( 'NONE', #126, .T. ) ;
#281 = DIRECTION ( 'NONE',  ( -3.491481338843133355E-15, 1.224646799147353454E-16, -1.000000000000000000 ) ) ;
#282 = ADVANCED_FACE ( 'NONE', ( #89, #190 ), #70, .T. ) ;
#283 = CARTESIAN_POINT ( 'NONE',  ( 8.728703347107827472E-16, -3.061616997868381785E-17, 0.2499999999999998335 ) ) ;
#284 = CONICAL_SURFACE ( 'NONE', #183, 1.363499999999998602, 0.5235987755982920433 ) ;
#285 = CARTESIAN_POINT ( 'NONE',  ( 8.728703347107833388E-16, 1.363499999999998602, 0.2500000000000000000 ) ) ;
#286 = PERSON_AND_ORGANIZATION_ROLE ( 'design_owner' ) ;
#287 = APPROVAL ( #216, 'UNSPECIFIED' ) ;
#288 = DIRECTION ( 'NONE',  ( -3.491481338843133355E-15, 1.224646799147353454E-16, -1.000000000000000000 ) ) ;
#289 = AXIS2_PLACEMENT_3D ( 'NONE', #193, #32, #144 ) ;
#290 = DIRECTION ( 'NONE',  ( 3.491481338843133355E-15, -1.224646799147353454E-16, 1.000000000000000000 ) ) ;
#291 = EDGE_LOOP ( 'NONE', ( #222 ) ) ;
#292 = FACE_OUTER_BOUND ( 'NONE', #145, .T. ) ;
#293 = AXIS2_PLACEMENT_3D ( 'NONE', #44, #21, #86 ) ;
#294 = AXIS2_PLACEMENT_3D ( 'NONE', #4, #184, #258 ) ;
#295 = FACE_BOUND ( 'NONE', #39, .T. ) ;
#296 = CC_DESIGN_PERSON_AND_ORGANIZATION_ASSIGNMENT ( #150, #194, ( #188 ) ) ;
#297 = PERSON_AND_ORGANIZATION ( #191, #233 ) ;
#298 = DESIGN_CONTEXT ( 'detailed design', #95, 'design' ) ;
#299 = DIRECTION ( 'NONE',  ( 0.0000000000000000000, -1.000000000000000000, 0.0000000000000000000 ) ) ;
#300 = FACE_OUTER_BOUND ( 'NONE', #55, .T. ) ;
#301 = CONICAL_SURFACE ( 'NONE', #129, 1.149999999999998135, 0.5235987755982934866 ) ;
#302 = FACE_OUTER_BOUND ( 'NONE', #13, .T. ) ;
#303 = FACE_BOUND ( 'NONE', #105, .T. ) ;
ENDSEC;
END-ISO-10303-21;
