ISO-10303-21;
HEADER;
FILE_DESCRIPTION (( 'STEP AP203' ),
    '1' );
FILE_NAME ('326987.step',
    '2021-11-30T09:36:56',
    ( '' ),
    ( '' ),
    'SwSTEP 2.0',
    'SolidWorks 2019',
    '' );
FILE_SCHEMA (( 'CONFIG_CONTROL_DESIGN' ));
ENDSEC;

DATA;
#1 = DIRECTION ( 'NONE',  ( -3.491481338843133355E-15, 1.224646799147353454E-16, -1.000000000000000000 ) ) ;
#2 = AXIS2_PLACEMENT_3D ( 'NONE', #167, #170, #258 ) ;
#3 = FACE_OUTER_BOUND ( 'NONE', #17, .T. ) ;
#4 = FACE_OUTER_BOUND ( 'NONE', #206, .T. ) ;
#5 = DIRECTION ( 'NONE',  ( -3.491481338843133355E-15, 1.224646799147353454E-16, -1.000000000000000000 ) ) ;
#6 = CIRCLE ( 'NONE', #263, 1.115000000000000213 ) ;
#7 = AXIS2_PLACEMENT_3D ( 'NONE', #249, #273, #207 ) ;
#8 = CC_DESIGN_PERSON_AND_ORGANIZATION_ASSIGNMENT ( #104, #253, ( #290 ) ) ;
#9 = AXIS2_PLACEMENT_3D ( 'NONE', #146, #50, #10 ) ;
#10 = DIRECTION ( 'NONE',  ( 4.382093161290643224E-31, 1.000000000000000000, 1.233449570518208728E-16 ) ) ;
#11 = COORDINATED_UNIVERSAL_TIME_OFFSET ( 1, 0, .AHEAD. ) ;
#12 = CARTESIAN_POINT ( 'NONE',  ( 3.491481338843133355E-14, -1.224646799147353454E-15, 10.00000000000000000 ) ) ;
#13 = DIRECTION ( 'NONE',  ( 0.0000000000000000000, 1.000000000000000000, 0.0000000000000000000 ) ) ;
#14 = APPROVAL_PERSON_ORGANIZATION ( #32, #190, #126 ) ;
#15 = EDGE_LOOP ( 'NONE', ( #130 ) ) ;
#16 = APPROVAL_ROLE ( '' ) ;
#17 = EDGE_LOOP ( 'NONE', ( #107 ) ) ;
#18 = CALENDAR_DATE ( 2021, 30, 11 ) ;
#19 = APPROVAL_PERSON_ORGANIZATION ( #270, #254, #16 ) ;
#20 = EDGE_LOOP ( 'NONE', ( #186 ) ) ;
#21 = DIRECTION ( 'NONE',  ( 0.0000000000000000000, 1.000000000000000000, 0.0000000000000000000 ) ) ;
#22 = ORIENTED_EDGE ( 'NONE', *, *, #113, .T. ) ;
#23 = DIRECTION ( 'NONE',  ( -3.491481338843133355E-15, 1.224646799147353454E-16, -1.000000000000000000 ) ) ;
#24 = CC_DESIGN_PERSON_AND_ORGANIZATION_ASSIGNMENT ( #301, #66, ( #290 ) ) ;
#25 = CIRCLE ( 'NONE', #71, 1.174162432702594572 ) ;
#26 = FACE_OUTER_BOUND ( 'NONE', #135, .T. ) ;
#27 = DIRECTION ( 'NONE',  ( -3.491481338843133355E-15, 1.224646799147353454E-16, -1.000000000000000000 ) ) ;
#28 = ADVANCED_FACE ( 'NONE', ( #183 ), #158, .F. ) ;
#29 = CARTESIAN_POINT ( 'NONE',  ( 3.614546398369628854E-14, -1.267812211363458297E-15, 10.35247233934027378 ) ) ;
#30 = AXIS2_PLACEMENT_3D ( 'NONE', #40, #277, #205 ) ;
#31 = DIRECTION ( 'NONE',  ( 1.000000000000000000, 0.0000000000000000000, 0.0000000000000000000 ) ) ;
#32 = PERSON_AND_ORGANIZATION ( #230, #246 ) ;
#33 = APPROVAL_STATUS ( 'not_yet_approved' ) ;
#34 = ADVANCED_FACE ( 'NONE', ( #295 ), #64, .T. ) ;
#35 =( GEOMETRIC_REPRESENTATION_CONTEXT ( 3 ) GLOBAL_UNCERTAINTY_ASSIGNED_CONTEXT ( ( #297 ) ) GLOBAL_UNIT_ASSIGNED_CONTEXT ( ( #219, #128, #178 ) ) REPRESENTATION_CONTEXT ( 'NONE', 'WORKASPACE' ) );
#36 = VERTEX_POINT ( 'NONE', #100 ) ;
#37 = AXIS2_PLACEMENT_3D ( 'NONE', #256, #65, #21 ) ;
#38 = COORDINATED_UNIVERSAL_TIME_OFFSET ( 1, 0, .AHEAD. ) ;
#39 = EDGE_CURVE ( 'NONE', #265, #265, #179, .T. ) ;
#40 = CARTESIAN_POINT ( 'NONE',  ( 3.491481338843133355E-14, 9.887166367198280323E-33, 10.00000000000000000 ) ) ;
#41 = EDGE_LOOP ( 'NONE', ( #181 ) ) ;
#42 = SHAPE_DEFINITION_REPRESENTATION ( #299, #51 ) ;
#43 = ORIENTED_EDGE ( 'NONE', *, *, #39, .F. ) ;
#44 = ORIENTED_EDGE ( 'NONE', *, *, #144, .F. ) ;
#45 = CONICAL_SURFACE ( 'NONE', #95, 1.499999999999996003, 0.1745329251994267028 ) ;
#46 = DIRECTION ( 'NONE',  ( 3.491481338843133355E-15, -1.224646799147353454E-16, 1.000000000000000000 ) ) ;
#47 = ADVANCED_FACE ( 'NONE', ( #81, #303 ), #138, .T. ) ;
#48 = CARTESIAN_POINT ( 'NONE',  ( 8.728703347107827472E-16, -3.061616997868381785E-17, 0.2499999999999998335 ) ) ;
#49 = CARTESIAN_POINT ( 'NONE',  ( 2.129803616694311221E-13, -7.470345474798856659E-15, 61.00000000000000000 ) ) ;
#50 = DIRECTION ( 'NONE',  ( -3.491481338843133355E-15, 1.224646799147353454E-16, -1.000000000000000000 ) ) ;
#51 = ADVANCED_BREP_SHAPE_REPRESENTATION ( '326987', ( #90, #91, #103 ), #35 ) ;
#52 = DIRECTION ( 'NONE',  ( -3.491481338843133355E-15, 1.224646799147353454E-16, -1.000000000000000000 ) ) ;
#53 = CARTESIAN_POINT ( 'NONE',  ( 9.552141577979921316E-14, -3.350440249625241788E-15, 27.35842082760472493 ) ) ;
#54 = CC_DESIGN_APPROVAL ( #202, ( #285 ) ) ;
#55 = CLOSED_SHELL ( 'NONE', ( #28, #47, #78, #166, #88, #75, #98, #175 ) ) ;
#56 = PERSON_AND_ORGANIZATION ( #230, #246 ) ;
#57 = MECHANICAL_CONTEXT ( 'NONE', #267, 'mechanical' ) ;
#58 = CC_DESIGN_DATE_AND_TIME_ASSIGNMENT ( #97, #292, ( #171 ) ) ;
#59 = CALENDAR_DATE ( 2021, 30, 11 ) ;
#60 = ORIENTED_EDGE ( 'NONE', *, *, #243, .T. ) ;
#61 = DESIGN_CONTEXT ( 'detailed design', #106, 'design' ) ;
#62 = APPROVAL_STATUS ( 'not_yet_approved' ) ;
#63 = ORIENTED_EDGE ( 'NONE', *, *, #198, .F. ) ;
#64 = PLANE ( 'NONE',  #232 ) ;
#65 = DIRECTION ( 'NONE',  ( -3.491481338843133355E-15, 1.224646799147353454E-16, -1.000000000000000000 ) ) ;
#66 = PERSON_AND_ORGANIZATION_ROLE ( 'design_supplier' ) ;
#67 = FACE_OUTER_BOUND ( 'NONE', #203, .T. ) ;
#68 = CARTESIAN_POINT ( 'NONE',  ( 0.0000000000000000000, 0.0000000000000000000, 0.0000000000000000000 ) ) ;
#69 = CARTESIAN_POINT ( 'NONE',  ( 2.129803616694311221E-13, 8.998558695971049855E-33, 61.00000000000000000 ) ) ;
#70 = CARTESIAN_POINT ( 'NONE',  ( 9.552141577979921316E-14, -3.350440249625241788E-15, 27.35842082760472493 ) ) ;
#71 = AXIS2_PLACEMENT_3D ( 'NONE', #116, #191, #241 ) ;
#72 = FACE_OUTER_BOUND ( 'NONE', #302, .T. ) ;
#73 = DIRECTION ( 'NONE',  ( 4.275831445896959482E-31, 1.000000000000000000, 1.224646799147353454E-16 ) ) ;
#74 = CARTESIAN_POINT ( 'NONE',  ( 9.552141577979921316E-14, 1.499999999999992673, 27.35842082760472493 ) ) ;
#75 = ADVANCED_FACE ( 'NONE', ( #300, #187 ), #160, .T. ) ;
#76 = CARTESIAN_POINT ( 'NONE',  ( 2.129803616694311221E-13, 1.199999999999993960, 61.00000000000000000 ) ) ;
#77 = CARTESIAN_POINT ( 'NONE',  ( 3.614546398369628854E-14, 1.114999999999996882, 10.35247233934027378 ) ) ;
#78 = ADVANCED_FACE ( 'NONE', ( #67, #164 ), #237, .T. ) ;
#79 = LOCAL_TIME ( 10, 36, 56.00000000000000000, #234 ) ;
#80 = VERTEX_POINT ( 'NONE', #77 ) ;
#81 = FACE_OUTER_BOUND ( 'NONE', #235, .T. ) ;
#82 = ORIENTED_EDGE ( 'NONE', *, *, #119, .T. ) ;
#83 = ADVANCED_FACE ( 'NONE', ( #92, #216 ), #123, .T. ) ;
#84 = AXIS2_PLACEMENT_3D ( 'NONE', #70, #262, #120 ) ;
#85 = EDGE_LOOP ( 'NONE', ( #102 ) ) ;
#86 = ORIENTED_EDGE ( 'NONE', *, *, #278, .T. ) ;
#87 = DIRECTION ( 'NONE',  ( -3.491481338843133355E-15, 1.224646799147353454E-16, -1.000000000000000000 ) ) ;
#88 = ADVANCED_FACE ( 'NONE', ( #238, #217 ), #45, .T. ) ;
#89 = DIRECTION ( 'NONE',  ( 0.0000000000000000000, 1.000000000000000000, 0.0000000000000000000 ) ) ;
#90 = MANIFOLD_SOLID_BREP ( 'Corps-Déplacer/Copier1[1]', #55 ) ;
#91 = MANIFOLD_SOLID_BREP ( 'Corps-Déplacer/Copier1[2]', #275 ) ;
#92 = FACE_BOUND ( 'NONE', #15, .T. ) ;
#93 = DIRECTION ( 'NONE',  ( 0.0000000000000000000, -1.000000000000000000, 0.0000000000000000000 ) ) ;
#94 = AXIS2_PLACEMENT_3D ( 'NONE', #29, #261, #189 ) ;
#95 = AXIS2_PLACEMENT_3D ( 'NONE', #53, #282, #93 ) ;
#96 = FACE_OUTER_BOUND ( 'NONE', #109, .T. ) ;
#97 = DATE_AND_TIME ( #225, #213 ) ;
#98 = ADVANCED_FACE ( 'NONE', ( #4, #192 ), #293, .T. ) ;
#99 = DIRECTION ( 'NONE',  ( -3.491481338843133355E-15, 1.224646799147353454E-16, -1.000000000000000000 ) ) ;
#100 = CARTESIAN_POINT ( 'NONE',  ( 8.728703347107833388E-14, 1.114999999999997105, 25.00000000000000000 ) ) ;
#101 = CARTESIAN_POINT ( 'NONE',  ( 0.0000000000000000000, 0.0000000000000000000, 0.0000000000000000000 ) ) ;
#102 = ORIENTED_EDGE ( 'NONE', *, *, #144, .T. ) ;
#103 = AXIS2_PLACEMENT_3D ( 'NONE', #101, #149, #31 ) ;
#104 = PERSON_AND_ORGANIZATION ( #230, #246 ) ;
#105 = DATE_TIME_ROLE ( 'classification_date' ) ;
#106 = APPLICATION_CONTEXT ( 'configuration controlled 3d designs of mechanical parts and assemblies' ) ;
#107 = ORIENTED_EDGE ( 'NONE', *, *, #229, .T. ) ;
#108 = CALENDAR_DATE ( 2021, 30, 11 ) ;
#109 = EDGE_LOOP ( 'NONE', ( #162 ) ) ;
#110 = CIRCLE ( 'NONE', #94, 1.114999999999998215 ) ;
#111 = LOCAL_TIME ( 10, 36, 56.00000000000000000, #11 ) ;
#112 = ORIENTED_EDGE ( 'NONE', *, *, #113, .F. ) ;
#113 = EDGE_CURVE ( 'NONE', #289, #289, #180, .T. ) ;
#114 = DATE_AND_TIME ( #18, #223 ) ;
#115 = EDGE_LOOP ( 'NONE', ( #86 ) ) ;
#116 = CARTESIAN_POINT ( 'NONE',  ( -8.805992305106950714E-31, 3.088726315042742473E-32, -2.522136437373806856E-16 ) ) ;
#117 = DIRECTION ( 'NONE',  ( -3.491481338843133355E-15, 1.224646799147353454E-16, -1.000000000000000000 ) ) ;
#118 = DIRECTION ( 'NONE',  ( -3.491481338843133355E-15, 1.224646799147353454E-16, -1.000000000000000000 ) ) ;
#119 = EDGE_CURVE ( 'NONE', #125, #125, #140, .T. ) ;
#120 = DIRECTION ( 'NONE',  ( 0.0000000000000000000, 1.000000000000000000, 0.0000000000000000000 ) ) ;
#121 = DIRECTION ( 'NONE',  ( -3.491481338843133355E-15, 1.224646799147353454E-16, -1.000000000000000000 ) ) ;
#122 = AXIS2_PLACEMENT_3D ( 'NONE', #69, #121, #147 ) ;
#123 = CONICAL_SURFACE ( 'NONE', #218, 1.318499999999998673, 0.5235987755982918213 ) ;
#124 = CARTESIAN_POINT ( 'NONE',  ( 8.849961221477468513E-14, 1.145384493975576401, 25.34729635533384240 ) ) ;
#125 = VERTEX_POINT ( 'NONE', #199 ) ;
#126 = APPROVAL_ROLE ( '' ) ;
#127 = AXIS2_PLACEMENT_3D ( 'NONE', #286, #52, #148 ) ;
#128 =( NAMED_UNIT ( * ) PLANE_ANGLE_UNIT ( ) SI_UNIT ( $, .RADIAN. ) );
#129 = CARTESIAN_POINT ( 'NONE',  ( 3.491481338843133355E-14, 1.318499999999998673, 10.00000000000000000 ) ) ;
#130 = ORIENTED_EDGE ( 'NONE', *, *, #212, .F. ) ;
#131 = CC_DESIGN_APPROVAL ( #254, ( #290 ) ) ;
#132 = EDGE_LOOP ( 'NONE', ( #43 ) ) ;
#133 = CARTESIAN_POINT ( 'NONE',  ( 3.491481338843133355E-14, 9.887166367198280323E-33, 10.00000000000000000 ) ) ;
#134 = COORDINATED_UNIVERSAL_TIME_OFFSET ( 1, 0, .AHEAD. ) ;
#135 = EDGE_LOOP ( 'NONE', ( #60 ) ) ;
#136 = EDGE_CURVE ( 'NONE', #152, #152, #255, .T. ) ;
#137 = SECURITY_CLASSIFICATION_LEVEL ( 'unclassified' ) ;
#138 = CONICAL_SURFACE ( 'NONE', #7, 1.114999999999998215, 0.5235987755982934866 ) ;
#139 = ORIENTED_EDGE ( 'NONE', *, *, #136, .F. ) ;
#140 = CIRCLE ( 'NONE', #9, 1.318499999999998673 ) ;
#141 = CARTESIAN_POINT ( 'NONE',  ( 0.0000000000000000000, 0.0000000000000000000, 0.0000000000000000000 ) ) ;
#142 = DIRECTION ( 'NONE',  ( 4.275831445896959482E-31, 1.000000000000000000, 1.224646799147353454E-16 ) ) ;
#143 = DIRECTION ( 'NONE',  ( 0.0000000000000000000, 1.000000000000000000, 0.0000000000000000000 ) ) ;
#144 = EDGE_CURVE ( 'NONE', #80, #80, #110, .T. ) ;
#145 = AXIS2_PLACEMENT_3D ( 'NONE', #141, #87, #252 ) ;
#146 = CARTESIAN_POINT ( 'NONE',  ( 8.728703347107827472E-16, -3.061616997868381785E-17, 0.2499999999999998335 ) ) ;
#147 = DIRECTION ( 'NONE',  ( 4.275831445896959482E-31, 1.000000000000000000, 1.224646799147353454E-16 ) ) ;
#148 = DIRECTION ( 'NONE',  ( 4.275831445896959482E-31, 1.000000000000000000, 1.224646799147353454E-16 ) ) ;
#149 = DIRECTION ( 'NONE',  ( 0.0000000000000000000, 0.0000000000000000000, 1.000000000000000000 ) ) ;
#150 = APPROVAL_DATE_TIME ( #222, #190 ) ;
#151 = LOCAL_TIME ( 10, 36, 56.00000000000000000, #134 ) ;
#152 = VERTEX_POINT ( 'NONE', #74 ) ;
#153 = ADVANCED_FACE ( 'NONE', ( #240, #26 ), #169, .T. ) ;
#154 = ORIENTED_EDGE ( 'NONE', *, *, #243, .F. ) ;
#155 = PRODUCT ( '326987', '326987', '', ( #57 ) ) ;
#156 = AXIS2_PLACEMENT_3D ( 'NONE', #214, #117, #73 ) ;
#157 = APPROVAL_STATUS ( 'not_yet_approved' ) ;
#158 = PLANE ( 'NONE',  #30 ) ;
#159 = PERSON_AND_ORGANIZATION ( #230, #246 ) ;
#160 = CYLINDRICAL_SURFACE ( 'NONE', #145, 1.499999999999998668 ) ;
#161 = PERSON_AND_ORGANIZATION_ROLE ( 'classification_officer' ) ;
#162 = ORIENTED_EDGE ( 'NONE', *, *, #212, .T. ) ;
#163 = AXIS2_PLACEMENT_3D ( 'NONE', #68, #5, #142 ) ;
#164 = FACE_OUTER_BOUND ( 'NONE', #185, .T. ) ;
#165 = DIRECTION ( 'NONE',  ( 3.491481338843133355E-15, -1.224646799147353454E-16, 1.000000000000000000 ) ) ;
#166 = ADVANCED_FACE ( 'NONE', ( #72, #3 ), #208, .F. ) ;
#167 = CARTESIAN_POINT ( 'NONE',  ( -4.402996152553475357E-31, 1.544363157521371236E-32, -1.261068218686903428E-16 ) ) ;
#168 = AXIS2_PLACEMENT_3D ( 'NONE', #211, #1, #89 ) ;
#169 = CYLINDRICAL_SURFACE ( 'NONE', #156, 1.318499999999999339 ) ;
#170 = DIRECTION ( 'NONE',  ( 3.491481338843133355E-15, -1.224646799147353454E-16, 1.000000000000000000 ) ) ;
#171 = PRODUCT_DEFINITION ( 'UNKNOWN', '', #290, #61 ) ;
#172 = CARTESIAN_POINT ( 'NONE',  ( 8.728703347107833388E-14, -3.061616997868383831E-15, 25.00000000000000000 ) ) ;
#173 = VERTEX_POINT ( 'NONE', #245 ) ;
#174 = VERTEX_POINT ( 'NONE', #124 ) ;
#175 = ADVANCED_FACE ( 'NONE', ( #242 ), #260, .F. ) ;
#176 = VERTEX_POINT ( 'NONE', #220 ) ;
#177 = EDGE_LOOP ( 'NONE', ( #298 ) ) ;
#178 =( NAMED_UNIT ( * ) SI_UNIT ( $, .STERADIAN. ) SOLID_ANGLE_UNIT ( ) );
#179 = CIRCLE ( 'NONE', #37, 1.200000000000001510 ) ;
#180 = CIRCLE ( 'NONE', #269, 1.500000000000001332 ) ;
#181 = ORIENTED_EDGE ( 'NONE', *, *, #39, .T. ) ;
#182 = APPROVAL_DATE_TIME ( #228, #202 ) ;
#183 = FACE_OUTER_BOUND ( 'NONE', #115, .T. ) ;
#184 = CIRCLE ( 'NONE', #197, 1.318500000000000005 ) ;
#185 = EDGE_LOOP ( 'NONE', ( #227 ) ) ;
#186 = ORIENTED_EDGE ( 'NONE', *, *, #229, .F. ) ;
#187 = FACE_OUTER_BOUND ( 'NONE', #251, .T. ) ;
#188 = CC_DESIGN_APPROVAL ( #190, ( #171 ) ) ;
#189 = DIRECTION ( 'NONE',  ( 0.0000000000000000000, 1.000000000000000000, 0.0000000000000000000 ) ) ;
#190 = APPROVAL ( #33, 'UNSPECIFIED' ) ;
#191 = DIRECTION ( 'NONE',  ( -3.491481338843133355E-15, 1.224646799147353454E-16, -1.000000000000000000 ) ) ;
#192 = FACE_BOUND ( 'NONE', #41, .T. ) ;
#193 = APPROVAL_PERSON_ORGANIZATION ( #159, #202, #204 ) ;
#194 = DIRECTION ( 'NONE',  ( 0.0000000000000000000, 1.000000000000000000, 0.0000000000000000000 ) ) ;
#195 = DIRECTION ( 'NONE',  ( 0.0000000000000000000, 1.000000000000000000, 0.0000000000000000000 ) ) ;
#196 = APPLICATION_PROTOCOL_DEFINITION ( 'international standard', 'config_control_design', 1994, #106 ) ;
#197 = AXIS2_PLACEMENT_3D ( 'NONE', #281, #257, #143 ) ;
#198 = EDGE_CURVE ( 'NONE', #36, #36, #6, .T. ) ;
#199 = CARTESIAN_POINT ( 'NONE',  ( 8.728703347107833388E-16, 1.318499999999998673, 0.2500000000000000000 ) ) ;
#200 = APPLICATION_PROTOCOL_DEFINITION ( 'international standard', 'config_control_design', 1994, #267 ) ;
#201 = PERSON_AND_ORGANIZATION_ROLE ( 'creator' ) ;
#202 = APPROVAL ( #157, 'UNSPECIFIED' ) ;
#203 = EDGE_LOOP ( 'NONE', ( #44 ) ) ;
#204 = APPROVAL_ROLE ( '' ) ;
#205 = DIRECTION ( 'NONE',  ( -4.275831445896959482E-31, -1.000000000000000000, -1.224646799147353454E-16 ) ) ;
#206 = EDGE_LOOP ( 'NONE', ( #112 ) ) ;
#207 = DIRECTION ( 'NONE',  ( 0.0000000000000000000, 1.000000000000000000, 0.0000000000000000000 ) ) ;
#208 = TOROIDAL_SURFACE ( 'NONE', #127, 3.115000000000000213, 2.000000000000000444 ) ;
#209 = ORIENTED_EDGE ( 'NONE', *, *, #278, .F. ) ;
#210 = APPROVAL_DATE_TIME ( #114, #254 ) ;
#211 = CARTESIAN_POINT ( 'NONE',  ( 8.849961221477468513E-14, -3.104148534859897150E-15, 25.34729635533384240 ) ) ;
#212 = EDGE_CURVE ( 'NONE', #173, #173, #25, .T. ) ;
#213 = LOCAL_TIME ( 10, 36, 56.00000000000000000, #38 ) ;
#214 = CARTESIAN_POINT ( 'NONE',  ( 0.0000000000000000000, 0.0000000000000000000, 0.0000000000000000000 ) ) ;
#215 = DIRECTION ( 'NONE',  ( 0.0000000000000000000, 1.000000000000000000, 0.0000000000000000000 ) ) ;
#216 = FACE_OUTER_BOUND ( 'NONE', #276, .T. ) ;
#217 = FACE_OUTER_BOUND ( 'NONE', #248, .T. ) ;
#218 = AXIS2_PLACEMENT_3D ( 'NONE', #48, #165, #239 ) ;
#219 =( LENGTH_UNIT ( ) NAMED_UNIT ( * ) SI_UNIT ( .MILLI., .METRE. ) );
#220 = CARTESIAN_POINT ( 'NONE',  ( 3.491481338843133355E-14, 1.318499999999998673, 10.00000000000000000 ) ) ;
#221 = CC_DESIGN_PERSON_AND_ORGANIZATION_ASSIGNMENT ( #247, #201, ( #171 ) ) ;
#222 = DATE_AND_TIME ( #59, #111 ) ;
#223 = LOCAL_TIME ( 10, 36, 56.00000000000000000, #250 ) ;
#224 = ADVANCED_FACE ( 'NONE', ( #96 ), #287, .F. ) ;
#225 = CALENDAR_DATE ( 2021, 30, 11 ) ;
#226 = DATE_AND_TIME ( #108, #79 ) ;
#227 = ORIENTED_EDGE ( 'NONE', *, *, #198, .T. ) ;
#228 = DATE_AND_TIME ( #271, #151 ) ;
#229 = EDGE_CURVE ( 'NONE', #174, #174, #280, .T. ) ;
#230 = PERSON ( 'UNSPECIFIED', 'UNSPECIFIED', 'UNSPECIFIED', ('UNSPECIFIED'), ('UNSPECIFIED'), ('UNSPECIFIED') ) ;
#231 = DIRECTION ( 'NONE',  ( -4.275831445896959482E-31, -1.000000000000000000, -1.224646799147353454E-16 ) ) ;
#232 = AXIS2_PLACEMENT_3D ( 'NONE', #133, #46, #231 ) ;
#233 = AXIS2_PLACEMENT_3D ( 'NONE', #49, #23, #215 ) ;
#234 = COORDINATED_UNIVERSAL_TIME_OFFSET ( 1, 0, .AHEAD. ) ;
#235 = EDGE_LOOP ( 'NONE', ( #209 ) ) ;
#236 = PRODUCT_RELATED_PRODUCT_CATEGORY ( 'detail', '', ( #155 ) ) ;
#237 = CYLINDRICAL_SURFACE ( 'NONE', #163, 1.114999999999999325 ) ;
#238 = FACE_BOUND ( 'NONE', #20, .T. ) ;
#239 = DIRECTION ( 'NONE',  ( -4.382093161290643224E-31, -1.000000000000000000, -1.233449570518208728E-16 ) ) ;
#240 = FACE_OUTER_BOUND ( 'NONE', #177, .T. ) ;
#241 = DIRECTION ( 'NONE',  ( 4.275831445896958607E-31, 1.000000000000000000, 1.224646799147353700E-16 ) ) ;
#242 = FACE_OUTER_BOUND ( 'NONE', #132, .T. ) ;
#243 = EDGE_CURVE ( 'NONE', #264, #264, #184, .T. ) ;
#244 = PERSON_AND_ORGANIZATION_ROLE ( 'design_owner' ) ;
#245 = CARTESIAN_POINT ( 'NONE',  ( -3.785471652766324464E-31, 1.174162432702594572, -1.084202172485504681E-16 ) ) ;
#246 = ORGANIZATION ( 'UNSPECIFIED', 'UNSPECIFIED', '' ) ;
#247 = PERSON_AND_ORGANIZATION ( #230, #246 ) ;
#248 = EDGE_LOOP ( 'NONE', ( #279 ) ) ;
#249 = CARTESIAN_POINT ( 'NONE',  ( 3.614546398369628854E-14, -1.267812211363458297E-15, 10.35247233934027378 ) ) ;
#250 = COORDINATED_UNIVERSAL_TIME_OFFSET ( 1, 0, .AHEAD. ) ;
#251 = EDGE_LOOP ( 'NONE', ( #22 ) ) ;
#252 = DIRECTION ( 'NONE',  ( 4.275831445896960358E-31, 1.000000000000000000, 1.224646799147353454E-16 ) ) ;
#253 = PERSON_AND_ORGANIZATION_ROLE ( 'creator' ) ;
#254 = APPROVAL ( #62, 'UNSPECIFIED' ) ;
#255 = CIRCLE ( 'NONE', #84, 1.499999999999996003 ) ;
#256 = CARTESIAN_POINT ( 'NONE',  ( 2.129803616694311221E-13, -7.470345474798856659E-15, 61.00000000000000000 ) ) ;
#257 = DIRECTION ( 'NONE',  ( -3.491481338843133355E-15, 1.224646799147353454E-16, -1.000000000000000000 ) ) ;
#258 = DIRECTION ( 'NONE',  ( -4.275831445896959482E-31, -1.000000000000000000, -1.224646799147353454E-16 ) ) ;
#259 = AXIS2_PLACEMENT_3D ( 'NONE', #12, #99, #13 ) ;
#260 = PLANE ( 'NONE',  #122 ) ;
#261 = DIRECTION ( 'NONE',  ( -3.491481338843133355E-15, 1.224646799147353454E-16, -1.000000000000000000 ) ) ;
#262 = DIRECTION ( 'NONE',  ( -3.491481338843133355E-15, 1.224646799147353454E-16, -1.000000000000000000 ) ) ;
#263 = AXIS2_PLACEMENT_3D ( 'NONE', #172, #27, #195 ) ;
#264 = VERTEX_POINT ( 'NONE', #129 ) ;
#265 = VERTEX_POINT ( 'NONE', #76 ) ;
#266 = EDGE_LOOP ( 'NONE', ( #154 ) ) ;
#267 = APPLICATION_CONTEXT ( 'configuration controlled 3d designs of mechanical parts and assemblies' ) ;
#268 = CIRCLE ( 'NONE', #259, 1.318500000000000005 ) ;
#269 = AXIS2_PLACEMENT_3D ( 'NONE', #284, #118, #194 ) ;
#270 = PERSON_AND_ORGANIZATION ( #230, #246 ) ;
#271 = CALENDAR_DATE ( 2021, 30, 11 ) ;
#272 = EDGE_LOOP ( 'NONE', ( #139 ) ) ;
#273 = DIRECTION ( 'NONE',  ( -3.491481338843133355E-15, 1.224646799147353454E-16, -1.000000000000000000 ) ) ;
#274 = CC_DESIGN_SECURITY_CLASSIFICATION ( #285, ( #290 ) ) ;
#275 = CLOSED_SHELL ( 'NONE', ( #224, #83, #153, #34 ) ) ;
#276 = EDGE_LOOP ( 'NONE', ( #82 ) ) ;
#277 = DIRECTION ( 'NONE',  ( 3.491481338843133355E-15, -1.224646799147353454E-16, 1.000000000000000000 ) ) ;
#278 = EDGE_CURVE ( 'NONE', #176, #176, #268, .T. ) ;
#279 = ORIENTED_EDGE ( 'NONE', *, *, #136, .T. ) ;
#280 = CIRCLE ( 'NONE', #168, 1.145384493975579288 ) ;
#281 = CARTESIAN_POINT ( 'NONE',  ( 3.491481338843133355E-14, -1.224646799147353454E-15, 10.00000000000000000 ) ) ;
#282 = DIRECTION ( 'NONE',  ( 3.491481338843133355E-15, -1.224646799147353454E-16, 1.000000000000000000 ) ) ;
#283 = CC_DESIGN_PERSON_AND_ORGANIZATION_ASSIGNMENT ( #56, #244, ( #155 ) ) ;
#284 = CARTESIAN_POINT ( 'NONE',  ( 2.119329172677781757E-13, -7.433606070824434221E-15, 60.69999999999999574 ) ) ;
#285 = SECURITY_CLASSIFICATION ( '', '', #137 ) ;
#286 = CARTESIAN_POINT ( 'NONE',  ( 8.728703347107833388E-14, -3.035766082959412415E-15, 25.00000000000000000 ) ) ;
#287 = PLANE ( 'NONE',  #2 ) ;
#288 = CC_DESIGN_DATE_AND_TIME_ASSIGNMENT ( #226, #105, ( #285 ) ) ;
#289 = VERTEX_POINT ( 'NONE', #291 ) ;
#290 = PRODUCT_DEFINITION_FORMATION_WITH_SPECIFIED_SOURCE ( 'ANY', '', #155, .NOT_KNOWN. ) ;
#291 = CARTESIAN_POINT ( 'NONE',  ( 2.119329172677781757E-13, 1.499999999999994005, 60.69999999999999574 ) ) ;
#292 = DATE_TIME_ROLE ( 'creation_date' ) ;
#293 = CONICAL_SURFACE ( 'NONE', #233, 1.200000000000001510, 0.7853981633974453924 ) ;
#294 = PERSON_AND_ORGANIZATION ( #230, #246 ) ;
#295 = FACE_OUTER_BOUND ( 'NONE', #266, .T. ) ;
#296 = CC_DESIGN_PERSON_AND_ORGANIZATION_ASSIGNMENT ( #294, #161, ( #285 ) ) ;
#297 = UNCERTAINTY_MEASURE_WITH_UNIT (LENGTH_MEASURE( 1.000000000000000082E-05 ), #219, 'distance_accuracy_value', 'NONE');
#298 = ORIENTED_EDGE ( 'NONE', *, *, #119, .F. ) ;
#299 = PRODUCT_DEFINITION_SHAPE ( 'NONE', 'NONE',  #171 ) ;
#300 = FACE_OUTER_BOUND ( 'NONE', #272, .T. ) ;
#301 = PERSON_AND_ORGANIZATION ( #230, #246 ) ;
#302 = EDGE_LOOP ( 'NONE', ( #63 ) ) ;
#303 = FACE_BOUND ( 'NONE', #85, .T. ) ;
ENDSEC;
END-ISO-10303-21;
