ISO-10303-21;
HEADER;
FILE_DESCRIPTION (( 'STEP AP203' ),
    '1' );
FILE_NAME ('326986.step',
    '2021-11-30T09:01:42',
    ( '' ),
    ( '' ),
    'SwSTEP 2.0',
    'SolidWorks 2019',
    '' );
FILE_SCHEMA (( 'CONFIG_CONTROL_DESIGN' ));
ENDSEC;

DATA;
#1 = PERSON_AND_ORGANIZATION_ROLE ( 'creator' ) ;
#2 = DIRECTION ( 'NONE',  ( -3.491481338843133355E-15, 1.224646799147353454E-16, -1.000000000000000000 ) ) ;
#3 = LOCAL_TIME ( 10, 1, 42.00000000000000000, #112 ) ;
#4 = DIRECTION ( 'NONE',  ( -3.491481338843133355E-15, 1.224646799147353454E-16, -1.000000000000000000 ) ) ;
#5 = CYLINDRICAL_SURFACE ( 'NONE', #69, 1.074999999999999512 ) ;
#6 = PERSON_AND_ORGANIZATION_ROLE ( 'design_supplier' ) ;
#7 = FACE_OUTER_BOUND ( 'NONE', #144, .T. ) ;
#8 = AXIS2_PLACEMENT_3D ( 'NONE', #90, #84, #197 ) ;
#9 = AXIS2_PLACEMENT_3D ( 'NONE', #273, #15, #294 ) ;
#10 = DIRECTION ( 'NONE',  ( 4.484120941530239843E-31, 1.000000000000000000, 1.262167837584989115E-16 ) ) ;
#11 = AXIS2_PLACEMENT_3D ( 'NONE', #290, #256, #10 ) ;
#12 = DIRECTION ( 'NONE',  ( 4.275831445896959482E-31, 1.000000000000000000, 1.224646799147353700E-16 ) ) ;
#13 = CARTESIAN_POINT ( 'NONE',  ( 2.129803616694311221E-13, 1.199999999999993960, 61.00000000000000000 ) ) ;
#14 = LOCAL_TIME ( 10, 1, 42.00000000000000000, #178 ) ;
#15 = DIRECTION ( 'NONE',  ( -3.491481338843133355E-15, 1.224646799147353454E-16, -1.000000000000000000 ) ) ;
#16 = CARTESIAN_POINT ( 'NONE',  ( 3.491481338843133355E-14, 1.288499999999998646, 10.00000000000000000 ) ) ;
#17 = APPROVAL_DATE_TIME ( #44, #292 ) ;
#18 = ADVANCED_FACE ( 'NONE', ( #125, #251 ), #39, .F. ) ;
#19 = VERTEX_POINT ( 'NONE', #92 ) ;
#20 = SECURITY_CLASSIFICATION ( '', '', #33 ) ;
#21 = AXIS2_PLACEMENT_3D ( 'NONE', #100, #233, #231 ) ;
#22 = EDGE_LOOP ( 'NONE', ( #161 ) ) ;
#23 = DIRECTION ( 'NONE',  ( -3.491481338843133355E-15, 1.224646799147353454E-16, -1.000000000000000000 ) ) ;
#24 = AXIS2_PLACEMENT_3D ( 'NONE', #151, #4, #173 ) ;
#25 = CARTESIAN_POINT ( 'NONE',  ( 3.491481338843133355E-14, -1.224646799147353454E-15, 10.00000000000000000 ) ) ;
#26 = EDGE_LOOP ( 'NONE', ( #143 ) ) ;
#27 = ADVANCED_FACE ( 'NONE', ( #207, #148 ), #52, .T. ) ;
#28 = ORIENTED_EDGE ( 'NONE', *, *, #176, .F. ) ;
#29 = APPROVAL_PERSON_ORGANIZATION ( #68, #292, #186 ) ;
#30 = FACE_BOUND ( 'NONE', #299, .T. ) ;
#31 = APPROVAL_DATE_TIME ( #110, #184 ) ;
#32 = DIRECTION ( 'NONE',  ( 3.491481338843133355E-15, -1.224646799147353454E-16, 1.000000000000000000 ) ) ;
#33 = SECURITY_CLASSIFICATION_LEVEL ( 'unclassified' ) ;
#34 = EDGE_CURVE ( 'NONE', #223, #223, #153, .T. ) ;
#35 = DIRECTION ( 'NONE',  ( 3.491481338843133355E-15, -1.224646799147353454E-16, 1.000000000000000000 ) ) ;
#36 = PERSON_AND_ORGANIZATION ( #277, #116 ) ;
#37 = FACE_OUTER_BOUND ( 'NONE', #210, .T. ) ;
#38 = PERSON_AND_ORGANIZATION ( #277, #116 ) ;
#39 = TOROIDAL_SURFACE ( 'NONE', #122, 3.075000000000000622, 2.000000000000000888 ) ;
#40 = CC_DESIGN_DATE_AND_TIME_ASSIGNMENT ( #257, #59, ( #20 ) ) ;
#41 = MECHANICAL_CONTEXT ( 'NONE', #181, 'mechanical' ) ;
#42 = AXIS2_PLACEMENT_3D ( 'NONE', #243, #284, #177 ) ;
#43 = VERTEX_POINT ( 'NONE', #70 ) ;
#44 = DATE_AND_TIME ( #222, #216 ) ;
#45 = PRODUCT_RELATED_PRODUCT_CATEGORY ( 'detail', '', ( #275 ) ) ;
#46 = CC_DESIGN_APPROVAL ( #169, ( #20 ) ) ;
#47 = EDGE_LOOP ( 'NONE', ( #276 ) ) ;
#48 = MANIFOLD_SOLID_BREP ( 'Corps-Déplacer/Copier1[2]', #301 ) ;
#49 = PRODUCT_DEFINITION ( 'UNKNOWN', '', #300, #215 ) ;
#50 = MANIFOLD_SOLID_BREP ( 'Corps-Déplacer/Copier1[1]', #166 ) ;
#51 = ORIENTED_EDGE ( 'NONE', *, *, #56, .F. ) ;
#52 = CYLINDRICAL_SURFACE ( 'NONE', #21, 1.288499999999999313 ) ;
#53 =( GEOMETRIC_REPRESENTATION_CONTEXT ( 3 ) GLOBAL_UNCERTAINTY_ASSIGNED_CONTEXT ( ( #64 ) ) GLOBAL_UNIT_ASSIGNED_CONTEXT ( ( #183, #291, #269 ) ) REPRESENTATION_CONTEXT ( 'NONE', 'WORKASPACE' ) );
#54 = CIRCLE ( 'NONE', #24, 1.105384493975579918 ) ;
#55 = ORIENTED_EDGE ( 'NONE', *, *, #170, .F. ) ;
#56 = EDGE_CURVE ( 'NONE', #117, #117, #268, .T. ) ;
#57 = ORIENTED_EDGE ( 'NONE', *, *, #34, .F. ) ;
#58 = FACE_OUTER_BOUND ( 'NONE', #281, .T. ) ;
#59 = DATE_TIME_ROLE ( 'classification_date' ) ;
#60 = DIRECTION ( 'NONE',  ( -3.491481338843133355E-15, 1.224646799147353454E-16, -1.000000000000000000 ) ) ;
#61 = APPROVAL_ROLE ( '' ) ;
#62 = CARTESIAN_POINT ( 'NONE',  ( 7.885605607120418317E-14, -2.765898118561394778E-15, 22.58527210038943522 ) ) ;
#63 = PERSON_AND_ORGANIZATION ( #277, #116 ) ;
#64 = UNCERTAINTY_MEASURE_WITH_UNIT (LENGTH_MEASURE( 1.000000000000000082E-05 ), #183, 'distance_accuracy_value', 'NONE');
#65 = DIRECTION ( 'NONE',  ( 4.275831445896958607E-31, 1.000000000000000000, 1.224646799147353207E-16 ) ) ;
#66 = SHAPE_DEFINITION_REPRESENTATION ( #206, #247 ) ;
#67 = CARTESIAN_POINT ( 'NONE',  ( 3.491481338843133355E-14, 9.662202399799001409E-33, 10.00000000000000000 ) ) ;
#68 = PERSON_AND_ORGANIZATION ( #277, #116 ) ;
#69 = AXIS2_PLACEMENT_3D ( 'NONE', #88, #60, #236 ) ;
#70 = CARTESIAN_POINT ( 'NONE',  ( -3.785471652766322713E-31, 1.144162432702594323, -1.084202172485504434E-16 ) ) ;
#71 = AXIS2_PLACEMENT_3D ( 'NONE', #109, #35, #133 ) ;
#72 = VERTEX_POINT ( 'NONE', #13 ) ;
#73 = VERTEX_POINT ( 'NONE', #157 ) ;
#74 = CONICAL_SURFACE ( 'NONE', #139, 1.074999999999998845, 0.5235987755982941527 ) ;
#75 = EDGE_LOOP ( 'NONE', ( #228 ) ) ;
#76 = CC_DESIGN_PERSON_AND_ORGANIZATION_ASSIGNMENT ( #162, #1, ( #49 ) ) ;
#77 = ORIENTED_EDGE ( 'NONE', *, *, #259, .F. ) ;
#78 = EDGE_LOOP ( 'NONE', ( #102 ) ) ;
#79 = CC_DESIGN_PERSON_AND_ORGANIZATION_ASSIGNMENT ( #220, #172, ( #20 ) ) ;
#80 = EDGE_LOOP ( 'NONE', ( #165 ) ) ;
#81 = AXIS2_PLACEMENT_3D ( 'NONE', #62, #235, #135 ) ;
#82 = FACE_BOUND ( 'NONE', #248, .T. ) ;
#83 = DIRECTION ( 'NONE',  ( 0.0000000000000000000, 1.000000000000000000, 0.0000000000000000000 ) ) ;
#84 = DIRECTION ( 'NONE',  ( -3.491481338843133355E-15, 1.224646799147353454E-16, -1.000000000000000000 ) ) ;
#85 = PERSON_AND_ORGANIZATION ( #277, #116 ) ;
#86 = CC_DESIGN_APPROVAL ( #292, ( #49 ) ) ;
#87 = CC_DESIGN_PERSON_AND_ORGANIZATION_ASSIGNMENT ( #182, #293, ( #275 ) ) ;
#88 = CARTESIAN_POINT ( 'NONE',  ( 0.0000000000000000000, 0.0000000000000000000, 0.0000000000000000000 ) ) ;
#89 = PLANE ( 'NONE',  #199 ) ;
#90 = CARTESIAN_POINT ( 'NONE',  ( 2.119329172677781757E-13, -7.433606070824434221E-15, 60.69999999999999574 ) ) ;
#91 = CC_DESIGN_APPROVAL ( #184, ( #300 ) ) ;
#92 = CARTESIAN_POINT ( 'NONE',  ( 7.885605607120418317E-14, 1.499999999999992673, 22.58527210038943522 ) ) ;
#93 = VERTEX_POINT ( 'NONE', #141 ) ;
#94 = AXIS2_PLACEMENT_3D ( 'NONE', #253, #168, #255 ) ;
#95 = DIRECTION ( 'NONE',  ( 1.000000000000000000, 0.0000000000000000000, 0.0000000000000000000 ) ) ;
#96 = CC_DESIGN_PERSON_AND_ORGANIZATION_ASSIGNMENT ( #36, #6, ( #300 ) ) ;
#97 = ORIENTED_EDGE ( 'NONE', *, *, #56, .T. ) ;
#98 = AXIS2_PLACEMENT_3D ( 'NONE', #263, #32, #107 ) ;
#99 = EDGE_LOOP ( 'NONE', ( #28 ) ) ;
#100 = CARTESIAN_POINT ( 'NONE',  ( 0.0000000000000000000, 0.0000000000000000000, 0.0000000000000000000 ) ) ;
#101 = CALENDAR_DATE ( 2021, 30, 11 ) ;
#102 = ORIENTED_EDGE ( 'NONE', *, *, #196, .F. ) ;
#103 = CARTESIAN_POINT ( 'NONE',  ( 6.982962677686266711E-14, -2.602085213965210642E-15, 20.00000000000000000 ) ) ;
#104 = AXIS2_PLACEMENT_3D ( 'NONE', #25, #2, #250 ) ;
#105 = PLANE ( 'NONE',  #42 ) ;
#106 = FACE_OUTER_BOUND ( 'NONE', #303, .T. ) ;
#107 = DIRECTION ( 'NONE',  ( -4.484120941530239843E-31, -1.000000000000000000, -1.262167837584989115E-16 ) ) ;
#108 = CONICAL_SURFACE ( 'NONE', #71, 1.499999999999995559, 0.1745329251994266473 ) ;
#109 = CARTESIAN_POINT ( 'NONE',  ( 7.885605607120418317E-14, -2.765898118561394778E-15, 22.58527210038943522 ) ) ;
#110 = DATE_AND_TIME ( #115, #252 ) ;
#111 = CARTESIAN_POINT ( 'NONE',  ( 3.491481338843133355E-14, 9.662202399799001409E-33, 10.00000000000000000 ) ) ;
#112 = COORDINATED_UNIVERSAL_TIME_OFFSET ( 1, 0, .AHEAD. ) ;
#113 = ADVANCED_FACE ( 'NONE', ( #130, #82 ), #156, .T. ) ;
#114 = DATE_TIME_ROLE ( 'creation_date' ) ;
#115 = CALENDAR_DATE ( 2021, 30, 11 ) ;
#116 = ORGANIZATION ( 'UNSPECIFIED', 'UNSPECIFIED', '' ) ;
#117 = VERTEX_POINT ( 'NONE', #224 ) ;
#118 = DIRECTION ( 'NONE',  ( 0.0000000000000000000, 0.0000000000000000000, 1.000000000000000000 ) ) ;
#119 = CC_DESIGN_DATE_AND_TIME_ASSIGNMENT ( #287, #114, ( #49 ) ) ;
#120 = DIRECTION ( 'NONE',  ( -3.491481338843133355E-15, 1.224646799147353454E-16, -1.000000000000000000 ) ) ;
#121 = CONICAL_SURFACE ( 'NONE', #98, 1.288499999999998646, 0.5235987755982924874 ) ;
#122 = AXIS2_PLACEMENT_3D ( 'NONE', #103, #23, #208 ) ;
#123 = AXIS2_PLACEMENT_3D ( 'NONE', #67, #201, #152 ) ;
#124 = ADVANCED_FACE ( 'NONE', ( #298, #219 ), #217, .T. ) ;
#125 = FACE_OUTER_BOUND ( 'NONE', #280, .T. ) ;
#126 = ORIENTED_EDGE ( 'NONE', *, *, #158, .T. ) ;
#127 = AXIS2_PLACEMENT_3D ( 'NONE', #154, #237, #65 ) ;
#128 = CARTESIAN_POINT ( 'NONE',  ( 3.491481338843133355E-14, -1.224646799147353454E-15, 10.00000000000000000 ) ) ;
#129 = ORIENTED_EDGE ( 'NONE', *, *, #176, .T. ) ;
#130 = FACE_OUTER_BOUND ( 'NONE', #189, .T. ) ;
#131 = FACE_OUTER_BOUND ( 'NONE', #80, .T. ) ;
#132 = CALENDAR_DATE ( 2021, 30, 11 ) ;
#133 = DIRECTION ( 'NONE',  ( 0.0000000000000000000, -1.000000000000000000, 0.0000000000000000000 ) ) ;
#134 = FACE_OUTER_BOUND ( 'NONE', #278, .T. ) ;
#135 = DIRECTION ( 'NONE',  ( 0.0000000000000000000, 1.000000000000000000, 0.0000000000000000000 ) ) ;
#136 = COORDINATED_UNIVERSAL_TIME_OFFSET ( 1, 0, .AHEAD. ) ;
#137 = CALENDAR_DATE ( 2021, 30, 11 ) ;
#138 = CARTESIAN_POINT ( 'NONE',  ( 2.129803616694311221E-13, 8.998558695971049855E-33, 61.00000000000000000 ) ) ;
#139 = AXIS2_PLACEMENT_3D ( 'NONE', #202, #194, #83 ) ;
#140 = VERTEX_POINT ( 'NONE', #227 ) ;
#141 = CARTESIAN_POINT ( 'NONE',  ( 3.620593821442182601E-14, 1.074999999999997513, 10.36979284741596175 ) ) ;
#142 = AXIS2_PLACEMENT_3D ( 'NONE', #128, #209, #283 ) ;
#143 = ORIENTED_EDGE ( 'NONE', *, *, #34, .T. ) ;
#144 = EDGE_LOOP ( 'NONE', ( #97 ) ) ;
#145 = ORIENTED_EDGE ( 'NONE', *, *, #170, .T. ) ;
#146 = CIRCLE ( 'NONE', #11, 1.288499999999998646 ) ;
#147 = ORIENTED_EDGE ( 'NONE', *, *, #259, .T. ) ;
#148 = FACE_OUTER_BOUND ( 'NONE', #26, .T. ) ;
#149 = CARTESIAN_POINT ( 'NONE',  ( 2.129803616694311221E-13, -7.470345474798856659E-15, 61.00000000000000000 ) ) ;
#150 = FACE_OUTER_BOUND ( 'NONE', #187, .T. ) ;
#151 = CARTESIAN_POINT ( 'NONE',  ( 7.104220552055900573E-14, -2.491825135286219831E-15, 20.34729635533384240 ) ) ;
#152 = DIRECTION ( 'NONE',  ( -4.275831445896959482E-31, -1.000000000000000000, -1.224646799147353454E-16 ) ) ;
#153 = CIRCLE ( 'NONE', #104, 1.288499999999999979 ) ;
#154 = CARTESIAN_POINT ( 'NONE',  ( -8.677717361730038925E-31, 3.043733521562885869E-32, -2.485397033399385602E-16 ) ) ;
#155 = PLANE ( 'NONE',  #190 ) ;
#156 = CONICAL_SURFACE ( 'NONE', #94, 1.200000000000001510, 0.7853981633974453924 ) ;
#157 = CARTESIAN_POINT ( 'NONE',  ( 7.104220552055900573E-14, 1.105384493975577476, 20.34729635533384240 ) ) ;
#158 = EDGE_CURVE ( 'NONE', #245, #245, #146, .T. ) ;
#159 = VERTEX_POINT ( 'NONE', #203 ) ;
#160 = CIRCLE ( 'NONE', #239, 1.200000000000001510 ) ;
#161 = ORIENTED_EDGE ( 'NONE', *, *, #196, .T. ) ;
#162 = PERSON_AND_ORGANIZATION ( #277, #116 ) ;
#163 = ORIENTED_EDGE ( 'NONE', *, *, #297, .T. ) ;
#164 = ORIENTED_EDGE ( 'NONE', *, *, #200, .T. ) ;
#165 = ORIENTED_EDGE ( 'NONE', *, *, #297, .F. ) ;
#166 = CLOSED_SHELL ( 'NONE', ( #226, #279, #282, #18, #213, #124, #113, #285 ) ) ;
#167 = AXIS2_PLACEMENT_3D ( 'NONE', #266, #214, #179 ) ;
#168 = DIRECTION ( 'NONE',  ( -3.491481338843133355E-15, 1.224646799147353454E-16, -1.000000000000000000 ) ) ;
#169 = APPROVAL ( #238, 'UNSPECIFIED' ) ;
#170 = EDGE_CURVE ( 'NONE', #159, #159, #296, .T. ) ;
#171 = PLANE ( 'NONE',  #123 ) ;
#172 = PERSON_AND_ORGANIZATION_ROLE ( 'classification_officer' ) ;
#173 = DIRECTION ( 'NONE',  ( 0.0000000000000000000, 1.000000000000000000, 0.0000000000000000000 ) ) ;
#174 = APPROVAL_ROLE ( '' ) ;
#175 = CARTESIAN_POINT ( 'NONE',  ( 0.0000000000000000000, 0.0000000000000000000, 0.0000000000000000000 ) ) ;
#176 = EDGE_CURVE ( 'NONE', #19, #19, #205, .T. ) ;
#177 = DIRECTION ( 'NONE',  ( -4.275831445896959482E-31, -1.000000000000000000, -1.224646799147353454E-16 ) ) ;
#178 = COORDINATED_UNIVERSAL_TIME_OFFSET ( 1, 0, .AHEAD. ) ;
#179 = DIRECTION ( 'NONE',  ( 0.0000000000000000000, 1.000000000000000000, 0.0000000000000000000 ) ) ;
#180 = APPROVAL_PERSON_ORGANIZATION ( #85, #184, #174 ) ;
#181 = APPLICATION_CONTEXT ( 'configuration controlled 3d designs of mechanical parts and assemblies' ) ;
#182 = PERSON_AND_ORGANIZATION ( #277, #116 ) ;
#183 =( LENGTH_UNIT ( ) NAMED_UNIT ( * ) SI_UNIT ( .MILLI., .METRE. ) );
#184 = APPROVAL ( #267, 'UNSPECIFIED' ) ;
#185 = DIRECTION ( 'NONE',  ( 4.275831445896959482E-31, 1.000000000000000000, 1.224646799147353454E-16 ) ) ;
#186 = APPROVAL_ROLE ( '' ) ;
#187 = EDGE_LOOP ( 'NONE', ( #51 ) ) ;
#188 = EDGE_LOOP ( 'NONE', ( #232 ) ) ;
#189 = EDGE_LOOP ( 'NONE', ( #191 ) ) ;
#190 = AXIS2_PLACEMENT_3D ( 'NONE', #138, #120, #185 ) ;
#191 = ORIENTED_EDGE ( 'NONE', *, *, #229, .F. ) ;
#192 = ADVANCED_FACE ( 'NONE', ( #106 ), #171, .T. ) ;
#193 = APPLICATION_CONTEXT ( 'configuration controlled 3d designs of mechanical parts and assemblies' ) ;
#194 = DIRECTION ( 'NONE',  ( -3.491481338843133355E-15, 1.224646799147353454E-16, -1.000000000000000000 ) ) ;
#195 = DIRECTION ( 'NONE',  ( 0.0000000000000000000, 1.000000000000000000, 0.0000000000000000000 ) ) ;
#196 = EDGE_CURVE ( 'NONE', #73, #73, #54, .T. ) ;
#197 = DIRECTION ( 'NONE',  ( 0.0000000000000000000, 1.000000000000000000, 0.0000000000000000000 ) ) ;
#198 = DATE_AND_TIME ( #137, #14 ) ;
#199 = AXIS2_PLACEMENT_3D ( 'NONE', #111, #240, #288 ) ;
#200 = EDGE_CURVE ( 'NONE', #43, #43, #241, .T. ) ;
#201 = DIRECTION ( 'NONE',  ( 3.491481338843133355E-15, -1.224646799147353454E-16, 1.000000000000000000 ) ) ;
#202 = CARTESIAN_POINT ( 'NONE',  ( 3.620593821442182601E-14, -1.269933361840907793E-15, 10.36979284741596175 ) ) ;
#203 = CARTESIAN_POINT ( 'NONE',  ( 6.982962677686266711E-14, 1.074999999999997735, 20.00000000000000000 ) ) ;
#204 = APPROVAL_STATUS ( 'not_yet_approved' ) ;
#205 = CIRCLE ( 'NONE', #81, 1.499999999999995559 ) ;
#206 = PRODUCT_DEFINITION_SHAPE ( 'NONE', 'NONE',  #49 ) ;
#207 = FACE_OUTER_BOUND ( 'NONE', #47, .T. ) ;
#208 = DIRECTION ( 'NONE',  ( 4.275831445896959482E-31, 1.000000000000000000, 1.224646799147353454E-16 ) ) ;
#209 = DIRECTION ( 'NONE',  ( -3.491481338843133355E-15, 1.224646799147353454E-16, -1.000000000000000000 ) ) ;
#210 = EDGE_LOOP ( 'NONE', ( #164 ) ) ;
#211 = DIRECTION ( 'NONE',  ( -3.491481338843133355E-15, 1.224646799147353454E-16, -1.000000000000000000 ) ) ;
#212 = FACE_OUTER_BOUND ( 'NONE', #302, .T. ) ;
#213 = ADVANCED_FACE ( 'NONE', ( #289, #260 ), #108, .T. ) ;
#214 = DIRECTION ( 'NONE',  ( -3.491481338843133355E-15, 1.224646799147353454E-16, -1.000000000000000000 ) ) ;
#215 = DESIGN_CONTEXT ( 'detailed design', #193, 'design' ) ;
#216 = LOCAL_TIME ( 10, 1, 42.00000000000000000, #136 ) ;
#217 = CYLINDRICAL_SURFACE ( 'NONE', #254, 1.499999999999998224 ) ;
#218 = APPROVAL_DATE_TIME ( #198, #169 ) ;
#219 = FACE_OUTER_BOUND ( 'NONE', #75, .T. ) ;
#220 = PERSON_AND_ORGANIZATION ( #277, #116 ) ;
#221 = CC_DESIGN_PERSON_AND_ORGANIZATION_ASSIGNMENT ( #63, #261, ( #300 ) ) ;
#222 = CALENDAR_DATE ( 2021, 30, 11 ) ;
#223 = VERTEX_POINT ( 'NONE', #16 ) ;
#224 = CARTESIAN_POINT ( 'NONE',  ( 3.491481338843133355E-14, 1.288499999999998646, 10.00000000000000000 ) ) ;
#225 = EDGE_LOOP ( 'NONE', ( #129 ) ) ;
#226 = ADVANCED_FACE ( 'NONE', ( #7 ), #89, .F. ) ;
#227 = CARTESIAN_POINT ( 'NONE',  ( 2.119329172677781757E-13, 1.499999999999994005, 60.69999999999999574 ) ) ;
#228 = ORIENTED_EDGE ( 'NONE', *, *, #229, .T. ) ;
#229 = EDGE_CURVE ( 'NONE', #140, #140, #272, .T. ) ;
#230 = CIRCLE ( 'NONE', #9, 1.074999999999998845 ) ;
#231 = DIRECTION ( 'NONE',  ( 4.275831445896959482E-31, 1.000000000000000000, 1.224646799147353454E-16 ) ) ;
#232 = ORIENTED_EDGE ( 'NONE', *, *, #200, .F. ) ;
#233 = DIRECTION ( 'NONE',  ( -3.491481338843133355E-15, 1.224646799147353454E-16, -1.000000000000000000 ) ) ;
#234 = CC_DESIGN_SECURITY_CLASSIFICATION ( #20, ( #300 ) ) ;
#235 = DIRECTION ( 'NONE',  ( -3.491481338843133355E-15, 1.224646799147353454E-16, -1.000000000000000000 ) ) ;
#236 = DIRECTION ( 'NONE',  ( 4.275831445896960358E-31, 1.000000000000000000, 1.224646799147353454E-16 ) ) ;
#237 = DIRECTION ( 'NONE',  ( -3.491481338843133355E-15, 1.224646799147353454E-16, -1.000000000000000000 ) ) ;
#238 = APPROVAL_STATUS ( 'not_yet_approved' ) ;
#239 = AXIS2_PLACEMENT_3D ( 'NONE', #149, #211, #195 ) ;
#240 = DIRECTION ( 'NONE',  ( 3.491481338843133355E-15, -1.224646799147353454E-16, 1.000000000000000000 ) ) ;
#241 = CIRCLE ( 'NONE', #127, 1.144162432702594323 ) ;
#242 = ADVANCED_FACE ( 'NONE', ( #37 ), #105, .F. ) ;
#243 = CARTESIAN_POINT ( 'NONE',  ( -4.338858680865019463E-31, 1.521866760781442934E-32, -1.242698516699692801E-16 ) ) ;
#244 = CARTESIAN_POINT ( 'NONE',  ( 0.0000000000000000000, 0.0000000000000000000, 0.0000000000000000000 ) ) ;
#245 = VERTEX_POINT ( 'NONE', #271 ) ;
#246 = LOCAL_TIME ( 10, 1, 42.00000000000000000, #249 ) ;
#247 = ADVANCED_BREP_SHAPE_REPRESENTATION ( '326986', ( #50, #48, #258 ), #53 ) ;
#248 = EDGE_LOOP ( 'NONE', ( #147 ) ) ;
#249 = COORDINATED_UNIVERSAL_TIME_OFFSET ( 1, 0, .AHEAD. ) ;
#250 = DIRECTION ( 'NONE',  ( 0.0000000000000000000, 1.000000000000000000, 0.0000000000000000000 ) ) ;
#251 = FACE_OUTER_BOUND ( 'NONE', #22, .T. ) ;
#252 = LOCAL_TIME ( 10, 1, 42.00000000000000000, #264 ) ;
#253 = CARTESIAN_POINT ( 'NONE',  ( 2.129803616694311221E-13, -7.470345474798856659E-15, 61.00000000000000000 ) ) ;
#254 = AXIS2_PLACEMENT_3D ( 'NONE', #175, #262, #12 ) ;
#255 = DIRECTION ( 'NONE',  ( 0.0000000000000000000, 1.000000000000000000, 0.0000000000000000000 ) ) ;
#256 = DIRECTION ( 'NONE',  ( -3.491481338843133355E-15, 1.224646799147353454E-16, -1.000000000000000000 ) ) ;
#257 = DATE_AND_TIME ( #132, #3 ) ;
#258 = AXIS2_PLACEMENT_3D ( 'NONE', #244, #118, #95 ) ;
#259 = EDGE_CURVE ( 'NONE', #72, #72, #160, .T. ) ;
#260 = FACE_OUTER_BOUND ( 'NONE', #225, .T. ) ;
#261 = PERSON_AND_ORGANIZATION_ROLE ( 'creator' ) ;
#262 = DIRECTION ( 'NONE',  ( -3.491481338843133355E-15, 1.224646799147353454E-16, -1.000000000000000000 ) ) ;
#263 = CARTESIAN_POINT ( 'NONE',  ( 8.728703347107827472E-16, -3.061616997868381785E-17, 0.2499999999999998335 ) ) ;
#264 = COORDINATED_UNIVERSAL_TIME_OFFSET ( 1, 0, .AHEAD. ) ;
#265 = ADVANCED_FACE ( 'NONE', ( #286, #58 ), #121, .T. ) ;
#266 = CARTESIAN_POINT ( 'NONE',  ( 6.982962677686266711E-14, -2.449293598294706907E-15, 20.00000000000000000 ) ) ;
#267 = APPROVAL_STATUS ( 'not_yet_approved' ) ;
#268 = CIRCLE ( 'NONE', #142, 1.288499999999999979 ) ;
#269 =( NAMED_UNIT ( * ) SI_UNIT ( $, .STERADIAN. ) SOLID_ANGLE_UNIT ( ) );
#270 = APPLICATION_PROTOCOL_DEFINITION ( 'international standard', 'config_control_design', 1994, #193 ) ;
#271 = CARTESIAN_POINT ( 'NONE',  ( 8.728703347107833388E-16, 1.288499999999998646, 0.2500000000000000000 ) ) ;
#272 = CIRCLE ( 'NONE', #8, 1.500000000000001332 ) ;
#273 = CARTESIAN_POINT ( 'NONE',  ( 3.620593821442182601E-14, -1.269933361840907793E-15, 10.36979284741596175 ) ) ;
#274 = APPLICATION_PROTOCOL_DEFINITION ( 'international standard', 'config_control_design', 1994, #181 ) ;
#275 = PRODUCT ( '326986', '326986', '', ( #41 ) ) ;
#276 = ORIENTED_EDGE ( 'NONE', *, *, #158, .F. ) ;
#277 = PERSON ( 'UNSPECIFIED', 'UNSPECIFIED', 'UNSPECIFIED', ('UNSPECIFIED'), ('UNSPECIFIED'), ('UNSPECIFIED') ) ;
#278 = EDGE_LOOP ( 'NONE', ( #77 ) ) ;
#279 = ADVANCED_FACE ( 'NONE', ( #150, #30 ), #74, .T. ) ;
#280 = EDGE_LOOP ( 'NONE', ( #55 ) ) ;
#281 = EDGE_LOOP ( 'NONE', ( #126 ) ) ;
#282 = ADVANCED_FACE ( 'NONE', ( #131, #212 ), #5, .T. ) ;
#283 = DIRECTION ( 'NONE',  ( 0.0000000000000000000, 1.000000000000000000, 0.0000000000000000000 ) ) ;
#284 = DIRECTION ( 'NONE',  ( 3.491481338843133355E-15, -1.224646799147353454E-16, 1.000000000000000000 ) ) ;
#285 = ADVANCED_FACE ( 'NONE', ( #134 ), #155, .F. ) ;
#286 = FACE_BOUND ( 'NONE', #188, .T. ) ;
#287 = DATE_AND_TIME ( #101, #246 ) ;
#288 = DIRECTION ( 'NONE',  ( -4.275831445896959482E-31, -1.000000000000000000, -1.224646799147353454E-16 ) ) ;
#289 = FACE_BOUND ( 'NONE', #78, .T. ) ;
#290 = CARTESIAN_POINT ( 'NONE',  ( 8.728703347107827472E-16, -3.061616997868381785E-17, 0.2499999999999998335 ) ) ;
#291 =( NAMED_UNIT ( * ) PLANE_ANGLE_UNIT ( ) SI_UNIT ( $, .RADIAN. ) );
#292 = APPROVAL ( #204, 'UNSPECIFIED' ) ;
#293 = PERSON_AND_ORGANIZATION_ROLE ( 'design_owner' ) ;
#294 = DIRECTION ( 'NONE',  ( 0.0000000000000000000, 1.000000000000000000, 0.0000000000000000000 ) ) ;
#295 = APPROVAL_PERSON_ORGANIZATION ( #38, #169, #61 ) ;
#296 = CIRCLE ( 'NONE', #167, 1.075000000000000178 ) ;
#297 = EDGE_CURVE ( 'NONE', #93, #93, #230, .T. ) ;
#298 = FACE_OUTER_BOUND ( 'NONE', #99, .T. ) ;
#299 = EDGE_LOOP ( 'NONE', ( #163 ) ) ;
#300 = PRODUCT_DEFINITION_FORMATION_WITH_SPECIFIED_SOURCE ( 'ANY', '', #275, .NOT_KNOWN. ) ;
#301 = CLOSED_SHELL ( 'NONE', ( #242, #265, #27, #192 ) ) ;
#302 = EDGE_LOOP ( 'NONE', ( #145 ) ) ;
#303 = EDGE_LOOP ( 'NONE', ( #57 ) ) ;
ENDSEC;
END-ISO-10303-21;
