ISO-10303-21;
HEADER;
FILE_DESCRIPTION (( 'STEP AP203' ),
    '1' );
FILE_NAME ('326985.step',
    '2021-11-30T09:01:41',
    ( '' ),
    ( '' ),
    'SwSTEP 2.0',
    'SolidWorks 2019',
    '' );
FILE_SCHEMA (( 'CONFIG_CONTROL_DESIGN' ));
ENDSEC;

DATA;
#1 = CALENDAR_DATE ( 2021, 30, 11 ) ;
#2 = CARTESIAN_POINT ( 'NONE',  ( 8.728703347107833388E-16, 1.283499999999998753, 0.2500000000000000000 ) ) ;
#3 = ADVANCED_FACE ( 'NONE', ( #57, #96 ), #269, .T. ) ;
#4 = CARTESIAN_POINT ( 'NONE',  ( 6.982962677686266711E-14, 1.074999999999997735, 20.00000000000000000 ) ) ;
#5 = DIRECTION ( 'NONE',  ( -3.491481338843133355E-15, 1.224646799147353454E-16, -1.000000000000000000 ) ) ;
#6 = DIRECTION ( 'NONE',  ( 3.491481338843133355E-15, -1.224646799147353454E-16, 1.000000000000000000 ) ) ;
#7 = EDGE_LOOP ( 'NONE', ( #265 ) ) ;
#8 = EDGE_LOOP ( 'NONE', ( #51 ) ) ;
#9 = DESIGN_CONTEXT ( 'detailed design', #153, 'design' ) ;
#10 = CARTESIAN_POINT ( 'NONE',  ( 7.885605607120418317E-14, -2.765898118561394778E-15, 22.58527210038943522 ) ) ;
#11 = COORDINATED_UNIVERSAL_TIME_OFFSET ( 1, 0, .AHEAD. ) ;
#12 = CARTESIAN_POINT ( 'NONE',  ( 0.0000000000000000000, 0.0000000000000000000, 0.0000000000000000000 ) ) ;
#13 =( GEOMETRIC_REPRESENTATION_CONTEXT ( 3 ) GLOBAL_UNCERTAINTY_ASSIGNED_CONTEXT ( ( #242 ) ) GLOBAL_UNIT_ASSIGNED_CONTEXT ( ( #286, #42, #43 ) ) REPRESENTATION_CONTEXT ( 'NONE', 'WORKASPACE' ) );
#14 = CARTESIAN_POINT ( 'NONE',  ( 2.129803616694311221E-13, 8.998558695971049855E-33, 61.00000000000000000 ) ) ;
#15 = LOCAL_TIME ( 10, 1, 41.00000000000000000, #71 ) ;
#16 = CONICAL_SURFACE ( 'NONE', #191, 1.499999999999995559, 0.1745329251994266473 ) ;
#17 = DIRECTION ( 'NONE',  ( 0.0000000000000000000, 1.000000000000000000, 0.0000000000000000000 ) ) ;
#18 = ADVANCED_FACE ( 'NONE', ( #190, #35 ), #16, .T. ) ;
#19 = FACE_OUTER_BOUND ( 'NONE', #241, .T. ) ;
#20 = CARTESIAN_POINT ( 'NONE',  ( 2.119329172677781757E-13, -7.433606070824434221E-15, 60.69999999999999574 ) ) ;
#21 = FACE_BOUND ( 'NONE', #122, .T. ) ;
#22 = CARTESIAN_POINT ( 'NONE',  ( 0.0000000000000000000, 0.0000000000000000000, 0.0000000000000000000 ) ) ;
#23 = APPROVAL_STATUS ( 'not_yet_approved' ) ;
#24 = APPROVAL_DATE_TIME ( #232, #109 ) ;
#25 = APPLICATION_CONTEXT ( 'configuration controlled 3d designs of mechanical parts and assemblies' ) ;
#26 = ADVANCED_FACE ( 'NONE', ( #165, #99 ), #219, .T. ) ;
#27 = EDGE_CURVE ( 'NONE', #68, #68, #226, .T. ) ;
#28 = DATE_AND_TIME ( #121, #255 ) ;
#29 = AXIS2_PLACEMENT_3D ( 'NONE', #58, #252, #87 ) ;
#30 = ORIENTED_EDGE ( 'NONE', *, *, #302, .F. ) ;
#31 = EDGE_LOOP ( 'NONE', ( #147 ) ) ;
#32 = DIRECTION ( 'NONE',  ( 4.275831445896960358E-31, 1.000000000000000000, 1.224646799147353454E-16 ) ) ;
#33 = AXIS2_PLACEMENT_3D ( 'NONE', #20, #174, #256 ) ;
#34 = ORIENTED_EDGE ( 'NONE', *, *, #132, .F. ) ;
#35 = FACE_OUTER_BOUND ( 'NONE', #94, .T. ) ;
#36 = LOCAL_TIME ( 10, 1, 41.00000000000000000, #11 ) ;
#37 = EDGE_CURVE ( 'NONE', #234, #234, #60, .T. ) ;
#38 = FACE_OUTER_BOUND ( 'NONE', #189, .T. ) ;
#39 = DIRECTION ( 'NONE',  ( 0.0000000000000000000, 1.000000000000000000, 0.0000000000000000000 ) ) ;
#40 = DIRECTION ( 'NONE',  ( 0.0000000000000000000, 1.000000000000000000, 0.0000000000000000000 ) ) ;
#41 = FACE_OUTER_BOUND ( 'NONE', #53, .T. ) ;
#42 =( NAMED_UNIT ( * ) PLANE_ANGLE_UNIT ( ) SI_UNIT ( $, .RADIAN. ) );
#43 =( NAMED_UNIT ( * ) SI_UNIT ( $, .STERADIAN. ) SOLID_ANGLE_UNIT ( ) );
#44 = CARTESIAN_POINT ( 'NONE',  ( 3.617570109905905727E-14, 1.074999999999997513, 10.36113259337811776 ) ) ;
#45 = CLOSED_SHELL ( 'NONE', ( #84, #135, #266, #54, #18, #100, #66, #231 ) ) ;
#46 = CARTESIAN_POINT ( 'NONE',  ( -4.870866551734232812E-31, 1.708470002486596935E-32, -1.395071626918145031E-16 ) ) ;
#47 = CC_DESIGN_PERSON_AND_ORGANIZATION_ASSIGNMENT ( #143, #95, ( #49 ) ) ;
#48 = CIRCLE ( 'NONE', #118, 1.074999999999998845 ) ;
#49 = SECURITY_CLASSIFICATION ( '', '', #73 ) ;
#50 = CALENDAR_DATE ( 2021, 30, 11 ) ;
#51 = ORIENTED_EDGE ( 'NONE', *, *, #257, .F. ) ;
#52 = COORDINATED_UNIVERSAL_TIME_OFFSET ( 1, 0, .AHEAD. ) ;
#53 = EDGE_LOOP ( 'NONE', ( #142 ) ) ;
#54 = ADVANCED_FACE ( 'NONE', ( #83, #251 ), #301, .F. ) ;
#55 = EDGE_LOOP ( 'NONE', ( #102 ) ) ;
#56 = DIRECTION ( 'NONE',  ( -3.491481338843133355E-15, 1.224646799147353454E-16, -1.000000000000000000 ) ) ;
#57 = FACE_OUTER_BOUND ( 'NONE', #196, .T. ) ;
#58 = CARTESIAN_POINT ( 'NONE',  ( 0.0000000000000000000, 0.0000000000000000000, 0.0000000000000000000 ) ) ;
#59 = CARTESIAN_POINT ( 'NONE',  ( 3.617570109905905727E-14, -1.268872786602182946E-15, 10.36113259337811776 ) ) ;
#60 = CIRCLE ( 'NONE', #97, 1.283499999999998753 ) ;
#61 = DIRECTION ( 'NONE',  ( -3.491481338843133355E-15, 1.224646799147353454E-16, -1.000000000000000000 ) ) ;
#62 = CARTESIAN_POINT ( 'NONE',  ( 3.491481338843133355E-14, -1.224646799147353454E-15, 10.00000000000000000 ) ) ;
#63 = ORGANIZATION ( 'UNSPECIFIED', 'UNSPECIFIED', '' ) ;
#64 = DIRECTION ( 'NONE',  ( 4.275831445896959482E-31, 1.000000000000000000, 1.224646799147353454E-16 ) ) ;
#65 = VERTEX_POINT ( 'NONE', #283 ) ;
#66 = ADVANCED_FACE ( 'NONE', ( #303, #21 ), #169, .T. ) ;
#67 = CARTESIAN_POINT ( 'NONE',  ( 7.885605607120418317E-14, 1.499999999999992673, 22.58527210038943522 ) ) ;
#68 = VERTEX_POINT ( 'NONE', #4 ) ;
#69 = PERSON_AND_ORGANIZATION ( #214, #63 ) ;
#70 = AXIS2_PLACEMENT_3D ( 'NONE', #178, #278, #148 ) ;
#71 = COORDINATED_UNIVERSAL_TIME_OFFSET ( 1, 0, .AHEAD. ) ;
#72 = DIRECTION ( 'NONE',  ( 0.0000000000000000000, -1.000000000000000000, 0.0000000000000000000 ) ) ;
#73 = SECURITY_CLASSIFICATION_LEVEL ( 'unclassified' ) ;
#74 = ORIENTED_EDGE ( 'NONE', *, *, #289, .F. ) ;
#75 = PRODUCT_DEFINITION ( 'UNKNOWN', '', #90, #9 ) ;
#76 = EDGE_LOOP ( 'NONE', ( #74 ) ) ;
#77 = DIRECTION ( 'NONE',  ( -4.501589273986531219E-31, -1.000000000000000000, -1.267084736056297726E-16 ) ) ;
#78 = CALENDAR_DATE ( 2021, 30, 11 ) ;
#79 = ADVANCED_BREP_SHAPE_REPRESENTATION ( '326985', ( #172, #170, #128 ), #13 ) ;
#80 = ORIENTED_EDGE ( 'NONE', *, *, #183, .F. ) ;
#81 = FACE_OUTER_BOUND ( 'NONE', #168, .T. ) ;
#82 = DIRECTION ( 'NONE',  ( 3.491481338843133355E-15, -1.224646799147353454E-16, 1.000000000000000000 ) ) ;
#83 = FACE_OUTER_BOUND ( 'NONE', #31, .T. ) ;
#84 = ADVANCED_FACE ( 'NONE', ( #112 ), #205, .F. ) ;
#85 = CIRCLE ( 'NONE', #260, 1.283500000000000085 ) ;
#86 = DIRECTION ( 'NONE',  ( 4.501589273986531219E-31, 1.000000000000000000, 1.267084736056297726E-16 ) ) ;
#87 = DIRECTION ( 'NONE',  ( 4.275831445896959482E-31, 1.000000000000000000, 1.224646799147353700E-16 ) ) ;
#88 = CIRCLE ( 'NONE', #235, 1.139162432702594652 ) ;
#89 = DIRECTION ( 'NONE',  ( 0.0000000000000000000, 0.0000000000000000000, 1.000000000000000000 ) ) ;
#90 = PRODUCT_DEFINITION_FORMATION_WITH_SPECIFIED_SOURCE ( 'ANY', '', #107, .NOT_KNOWN. ) ;
#91 = APPLICATION_PROTOCOL_DEFINITION ( 'international standard', 'config_control_design', 1994, #25 ) ;
#92 = VERTEX_POINT ( 'NONE', #258 ) ;
#93 = PERSON_AND_ORGANIZATION_ROLE ( 'design_supplier' ) ;
#94 = EDGE_LOOP ( 'NONE', ( #215 ) ) ;
#95 = PERSON_AND_ORGANIZATION_ROLE ( 'classification_officer' ) ;
#96 = FACE_OUTER_BOUND ( 'NONE', #294, .T. ) ;
#97 = AXIS2_PLACEMENT_3D ( 'NONE', #245, #221, #86 ) ;
#98 = APPROVAL_STATUS ( 'not_yet_approved' ) ;
#99 = FACE_OUTER_BOUND ( 'NONE', #293, .T. ) ;
#100 = ADVANCED_FACE ( 'NONE', ( #275, #151 ), #277, .T. ) ;
#101 = COORDINATED_UNIVERSAL_TIME_OFFSET ( 1, 0, .AHEAD. ) ;
#102 = ORIENTED_EDGE ( 'NONE', *, *, #257, .T. ) ;
#103 = APPROVAL_PERSON_ORGANIZATION ( #69, #109, #208 ) ;
#104 = CARTESIAN_POINT ( 'NONE',  ( 3.491481338843133355E-14, 9.624708405232457432E-33, 10.00000000000000000 ) ) ;
#105 = CLOSED_SHELL ( 'NONE', ( #175, #26, #3, #240 ) ) ;
#106 = DIRECTION ( 'NONE',  ( 0.0000000000000000000, 1.000000000000000000, 0.0000000000000000000 ) ) ;
#107 = PRODUCT ( '326985', '326985', '', ( #117 ) ) ;
#108 = CYLINDRICAL_SURFACE ( 'NONE', #138, 1.074999999999999512 ) ;
#109 = APPROVAL ( #23, 'UNSPECIFIED' ) ;
#110 = CARTESIAN_POINT ( 'NONE',  ( 3.491481338843133355E-14, -1.224646799147353454E-15, 10.00000000000000000 ) ) ;
#111 = CIRCLE ( 'NONE', #285, 1.283500000000000085 ) ;
#112 = FACE_OUTER_BOUND ( 'NONE', #291, .T. ) ;
#113 = CARTESIAN_POINT ( 'NONE',  ( 7.885605607120418317E-14, -2.765898118561394778E-15, 22.58527210038943522 ) ) ;
#114 = PERSON_AND_ORGANIZATION_ROLE ( 'design_owner' ) ;
#115 = DIRECTION ( 'NONE',  ( 4.275831445896960358E-31, 1.000000000000000000, 1.224646799147353454E-16 ) ) ;
#116 = AXIS2_PLACEMENT_3D ( 'NONE', #104, #300, #202 ) ;
#117 = MECHANICAL_CONTEXT ( 'NONE', #25, 'mechanical' ) ;
#118 = AXIS2_PLACEMENT_3D ( 'NONE', #59, #150, #39 ) ;
#119 = CC_DESIGN_DATE_AND_TIME_ASSIGNMENT ( #28, #123, ( #49 ) ) ;
#120 = ORIENTED_EDGE ( 'NONE', *, *, #27, .T. ) ;
#121 = CALENDAR_DATE ( 2021, 30, 11 ) ;
#122 = EDGE_LOOP ( 'NONE', ( #218 ) ) ;
#123 = DATE_TIME_ROLE ( 'classification_date' ) ;
#124 = ORIENTED_EDGE ( 'NONE', *, *, #183, .T. ) ;
#125 = PERSON_AND_ORGANIZATION_ROLE ( 'creator' ) ;
#126 = DIRECTION ( 'NONE',  ( 3.491481338843133355E-15, -1.224646799147353454E-16, 1.000000000000000000 ) ) ;
#127 = ORIENTED_EDGE ( 'NONE', *, *, #139, .F. ) ;
#128 = AXIS2_PLACEMENT_3D ( 'NONE', #136, #89, #181 ) ;
#129 = DIRECTION ( 'NONE',  ( -4.275831445896959482E-31, -1.000000000000000000, -1.224646799147353454E-16 ) ) ;
#130 = AXIS2_PLACEMENT_3D ( 'NONE', #270, #56, #145 ) ;
#131 = FACE_OUTER_BOUND ( 'NONE', #8, .T. ) ;
#132 = EDGE_CURVE ( 'NONE', #65, #65, #85, .T. ) ;
#133 = CARTESIAN_POINT ( 'NONE',  ( 2.129803616694311221E-13, -7.470345474798856659E-15, 61.00000000000000000 ) ) ;
#134 = CARTESIAN_POINT ( 'NONE',  ( 2.129803616694311221E-13, -7.470345474798856659E-15, 61.00000000000000000 ) ) ;
#135 = ADVANCED_FACE ( 'NONE', ( #179, #225 ), #204, .T. ) ;
#136 = CARTESIAN_POINT ( 'NONE',  ( 0.0000000000000000000, 0.0000000000000000000, 0.0000000000000000000 ) ) ;
#137 = COORDINATED_UNIVERSAL_TIME_OFFSET ( 1, 0, .AHEAD. ) ;
#138 = AXIS2_PLACEMENT_3D ( 'NONE', #22, #212, #115 ) ;
#139 = EDGE_CURVE ( 'NONE', #157, #157, #246, .T. ) ;
#140 = ORIENTED_EDGE ( 'NONE', *, *, #37, .F. ) ;
#141 = PERSON_AND_ORGANIZATION ( #214, #63 ) ;
#142 = ORIENTED_EDGE ( 'NONE', *, *, #209, .F. ) ;
#143 = PERSON_AND_ORGANIZATION ( #214, #63 ) ;
#144 = EDGE_LOOP ( 'NONE', ( #173 ) ) ;
#145 = DIRECTION ( 'NONE',  ( 0.0000000000000000000, 1.000000000000000000, 0.0000000000000000000 ) ) ;
#146 = AXIS2_PLACEMENT_3D ( 'NONE', #154, #152, #129 ) ;
#147 = ORIENTED_EDGE ( 'NONE', *, *, #27, .F. ) ;
#148 = DIRECTION ( 'NONE',  ( 0.0000000000000000000, 1.000000000000000000, 0.0000000000000000000 ) ) ;
#149 = CC_DESIGN_PERSON_AND_ORGANIZATION_ASSIGNMENT ( #193, #93, ( #90 ) ) ;
#150 = DIRECTION ( 'NONE',  ( -3.491481338843133355E-15, 1.224646799147353454E-16, -1.000000000000000000 ) ) ;
#151 = FACE_OUTER_BOUND ( 'NONE', #7, .T. ) ;
#152 = DIRECTION ( 'NONE',  ( 3.491481338843133355E-15, -1.224646799147353454E-16, 1.000000000000000000 ) ) ;
#153 = APPLICATION_CONTEXT ( 'configuration controlled 3d designs of mechanical parts and assemblies' ) ;
#154 = CARTESIAN_POINT ( 'NONE',  ( -2.435433275867116406E-31, 8.542350012432984673E-33, -6.975358134590725157E-17 ) ) ;
#155 = CIRCLE ( 'NONE', #238, 1.200000000000001510 ) ;
#156 = DIRECTION ( 'NONE',  ( 4.275831445896960358E-31, 1.000000000000000000, 1.224646799147353454E-16 ) ) ;
#157 = VERTEX_POINT ( 'NONE', #185 ) ;
#158 = EDGE_CURVE ( 'NONE', #159, #159, #111, .T. ) ;
#159 = VERTEX_POINT ( 'NONE', #160 ) ;
#160 = CARTESIAN_POINT ( 'NONE',  ( 3.491481338843133355E-14, 1.283499999999998753, 10.00000000000000000 ) ) ;
#161 = PERSON_AND_ORGANIZATION ( #214, #63 ) ;
#162 = PRODUCT_RELATED_PRODUCT_CATEGORY ( 'detail', '', ( #107 ) ) ;
#163 = APPROVAL_STATUS ( 'not_yet_approved' ) ;
#164 = LOCAL_TIME ( 10, 1, 41.00000000000000000, #137 ) ;
#165 = FACE_BOUND ( 'NONE', #76, .T. ) ;
#166 = CC_DESIGN_APPROVAL ( #274, ( #49 ) ) ;
#167 = SHAPE_DEFINITION_REPRESENTATION ( #184, #79 ) ;
#168 = EDGE_LOOP ( 'NONE', ( #34 ) ) ;
#169 = CONICAL_SURFACE ( 'NONE', #276, 1.200000000000001510, 0.7853981633974453924 ) ;
#170 = MANIFOLD_SOLID_BREP ( 'Corps-Déplacer/Copier1[2]', #105 ) ;
#171 = EDGE_LOOP ( 'NONE', ( #127 ) ) ;
#172 = MANIFOLD_SOLID_BREP ( 'Corps-Déplacer/Copier1[1]', #45 ) ;
#173 = ORIENTED_EDGE ( 'NONE', *, *, #158, .F. ) ;
#174 = DIRECTION ( 'NONE',  ( -3.491481338843133355E-15, 1.224646799147353454E-16, -1.000000000000000000 ) ) ;
#175 = ADVANCED_FACE ( 'NONE', ( #38 ), #176, .F. ) ;
#176 = PLANE ( 'NONE',  #146 ) ;
#177 = DIRECTION ( 'NONE',  ( -3.491481338843133355E-15, 1.224646799147353454E-16, -1.000000000000000000 ) ) ;
#178 = CARTESIAN_POINT ( 'NONE',  ( 3.617570109905905727E-14, -1.268872786602182946E-15, 10.36113259337811776 ) ) ;
#179 = FACE_OUTER_BOUND ( 'NONE', #144, .T. ) ;
#180 = AXIS2_PLACEMENT_3D ( 'NONE', #113, #281, #213 ) ;
#181 = DIRECTION ( 'NONE',  ( 1.000000000000000000, 0.0000000000000000000, 0.0000000000000000000 ) ) ;
#182 = CARTESIAN_POINT ( 'NONE',  ( 7.104220552055900573E-14, 1.105384493975577476, 20.34729635533384240 ) ) ;
#183 = EDGE_CURVE ( 'NONE', #284, #284, #186, .T. ) ;
#184 = PRODUCT_DEFINITION_SHAPE ( 'NONE', 'NONE',  #75 ) ;
#185 = CARTESIAN_POINT ( 'NONE',  ( 2.119329172677781757E-13, 1.499999999999994005, 60.69999999999999574 ) ) ;
#186 = CIRCLE ( 'NONE', #200, 1.105384493975579918 ) ;
#187 = CALENDAR_DATE ( 2021, 30, 11 ) ;
#188 = PERSON_AND_ORGANIZATION ( #214, #63 ) ;
#189 = EDGE_LOOP ( 'NONE', ( #268 ) ) ;
#190 = FACE_BOUND ( 'NONE', #216, .T. ) ;
#191 = AXIS2_PLACEMENT_3D ( 'NONE', #10, #6, #72 ) ;
#192 = CC_DESIGN_PERSON_AND_ORGANIZATION_ASSIGNMENT ( #141, #244, ( #90 ) ) ;
#193 = PERSON_AND_ORGANIZATION ( #214, #63 ) ;
#194 = CARTESIAN_POINT ( 'NONE',  ( 8.728703347107827472E-16, -3.061616997868381785E-17, 0.2499999999999998335 ) ) ;
#195 = DATE_AND_TIME ( #78, #295 ) ;
#196 = EDGE_LOOP ( 'NONE', ( #140 ) ) ;
#197 = CIRCLE ( 'NONE', #180, 1.499999999999995559 ) ;
#198 = CC_DESIGN_APPROVAL ( #222, ( #90 ) ) ;
#199 = DIRECTION ( 'NONE',  ( -3.491481338843133355E-15, 1.224646799147353454E-16, -1.000000000000000000 ) ) ;
#200 = AXIS2_PLACEMENT_3D ( 'NONE', #201, #254, #40 ) ;
#201 = CARTESIAN_POINT ( 'NONE',  ( 7.104220552055900573E-14, -2.491825135286219831E-15, 20.34729635533384240 ) ) ;
#202 = DIRECTION ( 'NONE',  ( -4.275831445896959482E-31, -1.000000000000000000, -1.224646799147353454E-16 ) ) ;
#203 = DIRECTION ( 'NONE',  ( 0.0000000000000000000, 1.000000000000000000, 0.0000000000000000000 ) ) ;
#204 = CONICAL_SURFACE ( 'NONE', #70, 1.074999999999998845, 0.5235987755982933756 ) ;
#205 = PLANE ( 'NONE',  #116 ) ;
#206 = VERTEX_POINT ( 'NONE', #282 ) ;
#207 = APPROVAL_PERSON_ORGANIZATION ( #188, #274, #220 ) ;
#208 = APPROVAL_ROLE ( '' ) ;
#209 = EDGE_CURVE ( 'NONE', #92, #92, #155, .T. ) ;
#210 = AXIS2_PLACEMENT_3D ( 'NONE', #194, #126, #77 ) ;
#211 = VERTEX_POINT ( 'NONE', #44 ) ;
#212 = DIRECTION ( 'NONE',  ( -3.491481338843133355E-15, 1.224646799147353454E-16, -1.000000000000000000 ) ) ;
#213 = DIRECTION ( 'NONE',  ( 0.0000000000000000000, 1.000000000000000000, 0.0000000000000000000 ) ) ;
#214 = PERSON ( 'UNSPECIFIED', 'UNSPECIFIED', 'UNSPECIFIED', ('UNSPECIFIED'), ('UNSPECIFIED'), ('UNSPECIFIED') ) ;
#215 = ORIENTED_EDGE ( 'NONE', *, *, #302, .T. ) ;
#216 = EDGE_LOOP ( 'NONE', ( #80 ) ) ;
#217 = DATE_TIME_ROLE ( 'creation_date' ) ;
#218 = ORIENTED_EDGE ( 'NONE', *, *, #209, .T. ) ;
#219 = CONICAL_SURFACE ( 'NONE', #210, 1.283499999999998753, 0.5235987755982920433 ) ;
#220 = APPROVAL_ROLE ( '' ) ;
#221 = DIRECTION ( 'NONE',  ( -3.491481338843133355E-15, 1.224646799147353454E-16, -1.000000000000000000 ) ) ;
#222 = APPROVAL ( #98, 'UNSPECIFIED' ) ;
#223 = PLANE ( 'NONE',  #224 ) ;
#224 = AXIS2_PLACEMENT_3D ( 'NONE', #14, #199, #297 ) ;
#225 = FACE_BOUND ( 'NONE', #55, .T. ) ;
#226 = CIRCLE ( 'NONE', #130, 1.075000000000000178 ) ;
#227 = CARTESIAN_POINT ( 'NONE',  ( 3.491481338843133355E-14, 9.624708405232457432E-33, 10.00000000000000000 ) ) ;
#228 = DIRECTION ( 'NONE',  ( -3.491481338843133355E-15, 1.224646799147353454E-16, -1.000000000000000000 ) ) ;
#229 = DIRECTION ( 'NONE',  ( -3.491481338843133355E-15, 1.224646799147353454E-16, -1.000000000000000000 ) ) ;
#230 = APPLICATION_PROTOCOL_DEFINITION ( 'international standard', 'config_control_design', 1994, #153 ) ;
#231 = ADVANCED_FACE ( 'NONE', ( #41 ), #223, .F. ) ;
#232 = DATE_AND_TIME ( #1, #164 ) ;
#233 = AXIS2_PLACEMENT_3D ( 'NONE', #249, #61, #64 ) ;
#234 = VERTEX_POINT ( 'NONE', #2 ) ;
#235 = AXIS2_PLACEMENT_3D ( 'NONE', #46, #5, #156 ) ;
#236 = PERSON_AND_ORGANIZATION ( #214, #63 ) ;
#237 = DATE_AND_TIME ( #50, #15 ) ;
#238 = AXIS2_PLACEMENT_3D ( 'NONE', #134, #229, #17 ) ;
#239 = ORIENTED_EDGE ( 'NONE', *, *, #37, .T. ) ;
#240 = ADVANCED_FACE ( 'NONE', ( #81 ), #298, .T. ) ;
#241 = EDGE_LOOP ( 'NONE', ( #120 ) ) ;
#242 = UNCERTAINTY_MEASURE_WITH_UNIT (LENGTH_MEASURE( 1.000000000000000082E-05 ), #286, 'distance_accuracy_value', 'NONE');
#243 = EDGE_LOOP ( 'NONE', ( #30 ) ) ;
#244 = PERSON_AND_ORGANIZATION_ROLE ( 'creator' ) ;
#245 = CARTESIAN_POINT ( 'NONE',  ( 8.728703347107827472E-16, -3.061616997868381785E-17, 0.2499999999999998335 ) ) ;
#246 = CIRCLE ( 'NONE', #33, 1.500000000000001332 ) ;
#247 = CC_DESIGN_DATE_AND_TIME_ASSIGNMENT ( #267, #217, ( #75 ) ) ;
#248 = DIRECTION ( 'NONE',  ( -3.491481338843133355E-15, 1.224646799147353454E-16, -1.000000000000000000 ) ) ;
#249 = CARTESIAN_POINT ( 'NONE',  ( 6.982962677686266711E-14, -2.602085213965210642E-15, 20.00000000000000000 ) ) ;
#250 = CC_DESIGN_SECURITY_CLASSIFICATION ( #49, ( #90 ) ) ;
#251 = FACE_OUTER_BOUND ( 'NONE', #271, .T. ) ;
#252 = DIRECTION ( 'NONE',  ( -3.491481338843133355E-15, 1.224646799147353454E-16, -1.000000000000000000 ) ) ;
#253 = CC_DESIGN_PERSON_AND_ORGANIZATION_ASSIGNMENT ( #161, #114, ( #107 ) ) ;
#254 = DIRECTION ( 'NONE',  ( -3.491481338843133355E-15, 1.224646799147353454E-16, -1.000000000000000000 ) ) ;
#255 = LOCAL_TIME ( 10, 1, 41.00000000000000000, #52 ) ;
#256 = DIRECTION ( 'NONE',  ( 0.0000000000000000000, 1.000000000000000000, 0.0000000000000000000 ) ) ;
#257 = EDGE_CURVE ( 'NONE', #211, #211, #48, .T. ) ;
#258 = CARTESIAN_POINT ( 'NONE',  ( 2.129803616694311221E-13, 1.199999999999993960, 61.00000000000000000 ) ) ;
#259 = VERTEX_POINT ( 'NONE', #67 ) ;
#260 = AXIS2_PLACEMENT_3D ( 'NONE', #62, #228, #106 ) ;
#261 = PERSON_AND_ORGANIZATION ( #214, #63 ) ;
#262 = AXIS2_PLACEMENT_3D ( 'NONE', #227, #82, #273 ) ;
#263 = APPROVAL_DATE_TIME ( #195, #274 ) ;
#264 = APPROVAL_PERSON_ORGANIZATION ( #236, #222, #290 ) ;
#265 = ORIENTED_EDGE ( 'NONE', *, *, #139, .T. ) ;
#266 = ADVANCED_FACE ( 'NONE', ( #131, #19 ), #108, .T. ) ;
#267 = DATE_AND_TIME ( #187, #36 ) ;
#268 = ORIENTED_EDGE ( 'NONE', *, *, #289, .T. ) ;
#269 = CYLINDRICAL_SURFACE ( 'NONE', #296, 1.283499999999999419 ) ;
#270 = CARTESIAN_POINT ( 'NONE',  ( 6.982962677686266711E-14, -2.449293598294706907E-15, 20.00000000000000000 ) ) ;
#271 = EDGE_LOOP ( 'NONE', ( #124 ) ) ;
#272 = DIRECTION ( 'NONE',  ( -3.491481338843133355E-15, 1.224646799147353454E-16, -1.000000000000000000 ) ) ;
#273 = DIRECTION ( 'NONE',  ( -4.275831445896959482E-31, -1.000000000000000000, -1.224646799147353454E-16 ) ) ;
#274 = APPROVAL ( #163, 'UNSPECIFIED' ) ;
#275 = FACE_OUTER_BOUND ( 'NONE', #243, .T. ) ;
#276 = AXIS2_PLACEMENT_3D ( 'NONE', #133, #177, #299 ) ;
#277 = CYLINDRICAL_SURFACE ( 'NONE', #29, 1.499999999999998224 ) ;
#278 = DIRECTION ( 'NONE',  ( -3.491481338843133355E-15, 1.224646799147353454E-16, -1.000000000000000000 ) ) ;
#279 = CC_DESIGN_APPROVAL ( #109, ( #75 ) ) ;
#280 = CC_DESIGN_PERSON_AND_ORGANIZATION_ASSIGNMENT ( #261, #125, ( #75 ) ) ;
#281 = DIRECTION ( 'NONE',  ( -3.491481338843133355E-15, 1.224646799147353454E-16, -1.000000000000000000 ) ) ;
#282 = CARTESIAN_POINT ( 'NONE',  ( 8.552847072295026068E-47, 1.139162432702594652, 0.0000000000000000000 ) ) ;
#283 = CARTESIAN_POINT ( 'NONE',  ( 3.491481338843133355E-14, 1.283499999999998753, 10.00000000000000000 ) ) ;
#284 = VERTEX_POINT ( 'NONE', #182 ) ;
#285 = AXIS2_PLACEMENT_3D ( 'NONE', #110, #272, #203 ) ;
#286 =( LENGTH_UNIT ( ) NAMED_UNIT ( * ) SI_UNIT ( .MILLI., .METRE. ) );
#287 = APPROVAL_DATE_TIME ( #237, #222 ) ;
#288 = ORIENTED_EDGE ( 'NONE', *, *, #132, .T. ) ;
#289 = EDGE_CURVE ( 'NONE', #206, #206, #88, .T. ) ;
#290 = APPROVAL_ROLE ( '' ) ;
#291 = EDGE_LOOP ( 'NONE', ( #292 ) ) ;
#292 = ORIENTED_EDGE ( 'NONE', *, *, #158, .T. ) ;
#293 = EDGE_LOOP ( 'NONE', ( #239 ) ) ;
#294 = EDGE_LOOP ( 'NONE', ( #288 ) ) ;
#295 = LOCAL_TIME ( 10, 1, 41.00000000000000000, #101 ) ;
#296 = AXIS2_PLACEMENT_3D ( 'NONE', #12, #248, #32 ) ;
#297 = DIRECTION ( 'NONE',  ( 4.275831445896959482E-31, 1.000000000000000000, 1.224646799147353454E-16 ) ) ;
#298 = PLANE ( 'NONE',  #262 ) ;
#299 = DIRECTION ( 'NONE',  ( 0.0000000000000000000, 1.000000000000000000, 0.0000000000000000000 ) ) ;
#300 = DIRECTION ( 'NONE',  ( 3.491481338843133355E-15, -1.224646799147353454E-16, 1.000000000000000000 ) ) ;
#301 = TOROIDAL_SURFACE ( 'NONE', #233, 3.075000000000000622, 2.000000000000000888 ) ;
#302 = EDGE_CURVE ( 'NONE', #259, #259, #197, .T. ) ;
#303 = FACE_OUTER_BOUND ( 'NONE', #171, .T. ) ;
ENDSEC;
END-ISO-10303-21;
