ISO-10303-21;
HEADER;
FILE_DESCRIPTION (( 'STEP AP203' ),
    '1' );
FILE_NAME ('326984.step',
    '2021-11-30T06:45:01',
    ( '' ),
    ( '' ),
    'SwSTEP 2.0',
    'SolidWorks 2019',
    '' );
FILE_SCHEMA (( 'CONFIG_CONTROL_DESIGN' ));
ENDSEC;

DATA;
#1 = PRODUCT_RELATED_PRODUCT_CATEGORY ( 'detail', '', ( #146 ) ) ;
#2 = DIRECTION ( 'NONE',  ( 4.275831445896958607E-31, 1.000000000000000000, 1.224646799147353207E-16 ) ) ;
#3 = CARTESIAN_POINT ( 'NONE',  ( 8.728703347107829444E-16, -3.061616997868381785E-17, 0.2499999999999998890 ) ) ;
#4 = PERSON_AND_ORGANIZATION ( #221, #92 ) ;
#5 = CONICAL_SURFACE ( 'NONE', #179, 1.499999999999996669, 0.1745329251994260922 ) ;
#6 = ORIENTED_EDGE ( 'NONE', *, *, #65, .T. ) ;
#7 = CARTESIAN_POINT ( 'NONE',  ( 8.728703347107835360E-16, 1.233499999999994046, 0.2500000000000000555 ) ) ;
#8 = CARTESIAN_POINT ( 'NONE',  ( 3.584309283006850024E-14, 1.079999999999997851, 10.26586979896181973 ) ) ;
#9 = VERTEX_POINT ( 'NONE', #174 ) ;
#10 = CARTESIAN_POINT ( 'NONE',  ( 3.491481338843133355E-14, 1.233499999999994046, 10.00000000000000000 ) ) ;
#11 = APPROVAL ( #289, 'UNSPECIFIED' ) ;
#12 = CARTESIAN_POINT ( 'NONE',  ( 7.875705019800163670E-14, -2.762425459997666779E-15, 22.55691569129135843 ) ) ;
#13 = ORIENTED_EDGE ( 'NONE', *, *, #237, .T. ) ;
#14 = PLANE ( 'NONE',  #88 ) ;
#15 = EDGE_LOOP ( 'NONE', ( #135 ) ) ;
#16 = CARTESIAN_POINT ( 'NONE',  ( 1.745740669421566678E-13, -6.123233995736766085E-15, 50.00000000000000000 ) ) ;
#17 = CARTESIAN_POINT ( 'NONE',  ( 6.982962677686266711E-14, -2.602085213965210642E-15, 20.00000000000000000 ) ) ;
#18 = ADVANCED_FACE ( 'NONE', ( #162, #20 ), #187, .F. ) ;
#19 = DIRECTION ( 'NONE',  ( -3.491481338843133355E-15, 1.224646799147353207E-16, -1.000000000000000000 ) ) ;
#20 = FACE_OUTER_BOUND ( 'NONE', #62, .T. ) ;
#21 = CARTESIAN_POINT ( 'NONE',  ( 8.728703347107829444E-16, -3.061616997868381785E-17, 0.2499999999999998890 ) ) ;
#22 = AXIS2_PLACEMENT_3D ( 'NONE', #58, #294, #276 ) ;
#23 = UNCERTAINTY_MEASURE_WITH_UNIT (LENGTH_MEASURE( 1.000000000000000082E-05 ), #192, 'distance_accuracy_value', 'NONE');
#24 = APPROVAL_DATE_TIME ( #52, #11 ) ;
#25 = PLANE ( 'NONE',  #125 ) ;
#26 = EDGE_CURVE ( 'NONE', #274, #274, #189, .T. ) ;
#27 = AXIS2_PLACEMENT_3D ( 'NONE', #34, #196, #124 ) ;
#28 =( NAMED_UNIT ( * ) PLANE_ANGLE_UNIT ( ) SI_UNIT ( $, .RADIAN. ) );
#29 = CC_DESIGN_DATE_AND_TIME_ASSIGNMENT ( #265, #55, ( #115 ) ) ;
#30 = VERTEX_POINT ( 'NONE', #10 ) ;
#31 = PERSON_AND_ORGANIZATION ( #221, #92 ) ;
#32 = FACE_BOUND ( 'NONE', #224, .T. ) ;
#33 = AXIS2_PLACEMENT_3D ( 'NONE', #21, #303, #87 ) ;
#34 = CARTESIAN_POINT ( 'NONE',  ( 3.491481338843133355E-14, 9.249768459566953344E-33, 10.00000000000000000 ) ) ;
#35 = CARTESIAN_POINT ( 'NONE',  ( 7.104220552055900573E-14, -2.491825135286219437E-15, 20.34729635533384240 ) ) ;
#36 = VERTEX_POINT ( 'NONE', #227 ) ;
#37 = CARTESIAN_POINT ( 'NONE',  ( 3.491481338843133355E-14, 9.249768459566953344E-33, 10.00000000000000000 ) ) ;
#38 = APPROVAL_ROLE ( '' ) ;
#39 = DIRECTION ( 'NONE',  ( 0.0000000000000000000, 1.000000000000000000, 0.0000000000000000000 ) ) ;
#40 = ORIENTED_EDGE ( 'NONE', *, *, #65, .F. ) ;
#41 = FACE_OUTER_BOUND ( 'NONE', #184, .T. ) ;
#42 = CARTESIAN_POINT ( 'NONE',  ( 1.745740669421566678E-13, -6.123233995736766085E-15, 50.00000000000000000 ) ) ;
#43 = CARTESIAN_POINT ( 'NONE',  ( -2.764339153056201761E-31, 9.695996532720064584E-33, -7.917382007180188802E-17 ) ) ;
#44 = DIRECTION ( 'NONE',  ( -4.275831445896958607E-31, -1.000000000000000000, -1.224646799147353207E-16 ) ) ;
#45 = ADVANCED_BREP_SHAPE_REPRESENTATION ( '326984', ( #51, #48, #236 ), #298 ) ;
#46 = ADVANCED_FACE ( 'NONE', ( #165 ), #84, .F. ) ;
#47 = DIRECTION ( 'NONE',  ( -3.491481338843133355E-15, 1.224646799147353207E-16, -1.000000000000000000 ) ) ;
#48 = MANIFOLD_SOLID_BREP ( 'Corps-Déplacer/Copier1[2]', #120 ) ;
#49 = APPLICATION_CONTEXT ( 'configuration controlled 3d designs of mechanical parts and assemblies' ) ;
#50 = AXIS2_PLACEMENT_3D ( 'NONE', #302, #253, #279 ) ;
#51 = MANIFOLD_SOLID_BREP ( 'Corps-Déplacer/Copier1[1]', #66 ) ;
#52 = DATE_AND_TIME ( #266, #180 ) ;
#53 = VERTEX_POINT ( 'NONE', #7 ) ;
#54 = ADVANCED_FACE ( 'NONE', ( #100, #234 ), #86, .T. ) ;
#55 = DATE_TIME_ROLE ( 'creation_date' ) ;
#56 = COORDINATED_UNIVERSAL_TIME_OFFSET ( 1, 0, .AHEAD. ) ;
#57 = CYLINDRICAL_SURFACE ( 'NONE', #271, 1.079999999999999627 ) ;
#58 = CARTESIAN_POINT ( 'NONE',  ( 7.875705019800163670E-14, -2.762425459997666779E-15, 22.55691569129135843 ) ) ;
#59 = CIRCLE ( 'NONE', #167, 1.089162432702589722 ) ;
#60 = FACE_OUTER_BOUND ( 'NONE', #277, .T. ) ;
#61 = DIRECTION ( 'NONE',  ( 0.0000000000000000000, -1.000000000000000000, 0.0000000000000000000 ) ) ;
#62 = EDGE_LOOP ( 'NONE', ( #6 ) ) ;
#63 = AXIS2_PLACEMENT_3D ( 'NONE', #37, #64, #44 ) ;
#64 = DIRECTION ( 'NONE',  ( 3.491481338843133355E-15, -1.224646799147353207E-16, 1.000000000000000000 ) ) ;
#65 = EDGE_CURVE ( 'NONE', #161, #161, #157, .T. ) ;
#66 = CLOSED_SHELL ( 'NONE', ( #46, #278, #173, #18, #261, #143, #111, #107 ) ) ;
#67 = VERTEX_POINT ( 'NONE', #8 ) ;
#68 = DIRECTION ( 'NONE',  ( 0.0000000000000000000, 1.000000000000000000, 0.0000000000000000000 ) ) ;
#69 = PERSON_AND_ORGANIZATION ( #221, #92 ) ;
#70 = APPROVAL_ROLE ( '' ) ;
#71 = PERSON_AND_ORGANIZATION ( #221, #92 ) ;
#72 = EDGE_CURVE ( 'NONE', #36, #36, #59, .T. ) ;
#73 = AXIS2_PLACEMENT_3D ( 'NONE', #16, #295, #77 ) ;
#74 = EDGE_CURVE ( 'NONE', #199, #199, #134, .T. ) ;
#75 = CARTESIAN_POINT ( 'NONE',  ( 3.584309283006850024E-14, -1.257206458976207263E-15, 10.26586979896181973 ) ) ;
#76 = DIRECTION ( 'NONE',  ( 0.0000000000000000000, 1.000000000000000000, 0.0000000000000000000 ) ) ;
#77 = DIRECTION ( 'NONE',  ( 0.0000000000000000000, 1.000000000000000000, 0.0000000000000000000 ) ) ;
#78 = AXIS2_PLACEMENT_3D ( 'NONE', #300, #287, #68 ) ;
#79 = EDGE_LOOP ( 'NONE', ( #138 ) ) ;
#80 = PERSON_AND_ORGANIZATION ( #221, #92 ) ;
#81 = DIRECTION ( 'NONE',  ( 0.0000000000000000000, 1.000000000000000000, 0.0000000000000000000 ) ) ;
#82 = ORIENTED_EDGE ( 'NONE', *, *, #74, .T. ) ;
#83 = CC_DESIGN_PERSON_AND_ORGANIZATION_ASSIGNMENT ( #71, #244, ( #115 ) ) ;
#84 = PLANE ( 'NONE',  #63 ) ;
#85 = DIRECTION ( 'NONE',  ( 4.275831445896958607E-31, 1.000000000000000000, 1.224646799147353207E-16 ) ) ;
#86 = CONICAL_SURFACE ( 'NONE', #33, 1.233499999999994046, 0.5235987755982928205 ) ;
#87 = DIRECTION ( 'NONE',  ( -4.684061478039509954E-31, -1.000000000000000000, -1.318446095442451985E-16 ) ) ;
#88 = AXIS2_PLACEMENT_3D ( 'NONE', #182, #292, #99 ) ;
#89 = EDGE_CURVE ( 'NONE', #30, #30, #207, .T. ) ;
#90 = PERSON_AND_ORGANIZATION_ROLE ( 'design_owner' ) ;
#91 = AXIS2_PLACEMENT_3D ( 'NONE', #155, #220, #151 ) ;
#92 = ORGANIZATION ( 'UNSPECIFIED', 'UNSPECIFIED', '' ) ;
#93 = CARTESIAN_POINT ( 'NONE',  ( 0.0000000000000000000, 0.0000000000000000000, 0.0000000000000000000 ) ) ;
#94 =( NAMED_UNIT ( * ) SI_UNIT ( $, .STERADIAN. ) SOLID_ANGLE_UNIT ( ) );
#95 = CARTESIAN_POINT ( 'NONE',  ( 1.745740669421566678E-13, 1.199999999999995515, 50.00000000000000000 ) ) ;
#96 = DIRECTION ( 'NONE',  ( -3.491481338843133355E-15, 1.224646799147353207E-16, -1.000000000000000000 ) ) ;
#97 = AXIS2_PLACEMENT_3D ( 'NONE', #163, #223, #39 ) ;
#98 = CYLINDRICAL_SURFACE ( 'NONE', #284, 1.233499999999994712 ) ;
#99 = DIRECTION ( 'NONE',  ( -4.275831445896958607E-31, -1.000000000000000000, -1.224646799147353207E-16 ) ) ;
#100 = FACE_BOUND ( 'NONE', #79, .T. ) ;
#101 = PLANE ( 'NONE',  #27 ) ;
#102 = CC_DESIGN_APPROVAL ( #104, ( #121 ) ) ;
#103 = EDGE_LOOP ( 'NONE', ( #122 ) ) ;
#104 = APPROVAL ( #130, 'UNSPECIFIED' ) ;
#105 = FACE_OUTER_BOUND ( 'NONE', #15, .T. ) ;
#106 = DIRECTION ( 'NONE',  ( -3.491481338843133355E-15, 1.224646799147353207E-16, -1.000000000000000000 ) ) ;
#107 = ADVANCED_FACE ( 'NONE', ( #168 ), #25, .F. ) ;
#108 = ORIENTED_EDGE ( 'NONE', *, *, #282, .F. ) ;
#109 = CC_DESIGN_APPROVAL ( #11, ( #115 ) ) ;
#110 = DIRECTION ( 'NONE',  ( 0.0000000000000000000, 1.000000000000000000, 0.0000000000000000000 ) ) ;
#111 = ADVANCED_FACE ( 'NONE', ( #105, #258 ), #290, .T. ) ;
#112 = AXIS2_PLACEMENT_3D ( 'NONE', #17, #106, #204 ) ;
#113 = LOCAL_TIME ( 7, 45, 1.000000000000000000, #56 ) ;
#114 = DIRECTION ( 'NONE',  ( -3.491481338843133355E-15, 1.224646799147353207E-16, -1.000000000000000000 ) ) ;
#115 = PRODUCT_DEFINITION ( 'UNKNOWN', '', #242, #186 ) ;
#116 = APPROVAL_ROLE ( '' ) ;
#117 = CARTESIAN_POINT ( 'NONE',  ( 1.745740669421566678E-13, 8.998558695971067645E-33, 50.00000000000000000 ) ) ;
#118 = EDGE_LOOP ( 'NONE', ( #240 ) ) ;
#119 = VERTEX_POINT ( 'NONE', #95 ) ;
#120 = CLOSED_SHELL ( 'NONE', ( #203, #54, #285, #228 ) ) ;
#121 = SECURITY_CLASSIFICATION ( '', '', #286 ) ;
#122 = ORIENTED_EDGE ( 'NONE', *, *, #171, .F. ) ;
#123 = FACE_OUTER_BOUND ( 'NONE', #132, .T. ) ;
#124 = DIRECTION ( 'NONE',  ( -4.275831445896958607E-31, -1.000000000000000000, -1.224646799147353207E-16 ) ) ;
#125 = AXIS2_PLACEMENT_3D ( 'NONE', #117, #114, #2 ) ;
#126 = CONICAL_SURFACE ( 'NONE', #97, 1.079999999999999183, 0.5235987755982948189 ) ;
#127 = CALENDAR_DATE ( 2021, 30, 11 ) ;
#128 = FACE_OUTER_BOUND ( 'NONE', #129, .T. ) ;
#129 = EDGE_LOOP ( 'NONE', ( #13 ) ) ;
#130 = APPROVAL_STATUS ( 'not_yet_approved' ) ;
#131 = CARTESIAN_POINT ( 'NONE',  ( 3.491481338843133355E-14, 1.233499999999994046, 10.00000000000000000 ) ) ;
#132 = EDGE_LOOP ( 'NONE', ( #243 ) ) ;
#133 = DIRECTION ( 'NONE',  ( 4.275831445896958607E-31, 1.000000000000000000, 1.224646799147353207E-16 ) ) ;
#134 = CIRCLE ( 'NONE', #297, 1.500000000000001554 ) ;
#135 = ORIENTED_EDGE ( 'NONE', *, *, #74, .F. ) ;
#136 = APPROVAL_DATE_TIME ( #198, #104 ) ;
#137 = DIRECTION ( 'NONE',  ( -3.491481338843133355E-15, 1.224646799147353207E-16, -1.000000000000000000 ) ) ;
#138 = ORIENTED_EDGE ( 'NONE', *, *, #72, .F. ) ;
#139 = CARTESIAN_POINT ( 'NONE',  ( 1.735266225405037467E-13, -6.086494591762345225E-15, 49.70000000000000284 ) ) ;
#140 = DIRECTION ( 'NONE',  ( -3.491481338843133355E-15, 1.224646799147353207E-16, -1.000000000000000000 ) ) ;
#141 = CIRCLE ( 'NONE', #73, 1.200000000000001732 ) ;
#142 = CC_DESIGN_SECURITY_CLASSIFICATION ( #121, ( #242 ) ) ;
#143 = ADVANCED_FACE ( 'NONE', ( #41, #209 ), #185, .T. ) ;
#144 = LOCAL_TIME ( 7, 45, 1.000000000000000000, #232 ) ;
#145 = DATE_AND_TIME ( #150, #113 ) ;
#146 = PRODUCT ( '326984', '326984', '', ( #268 ) ) ;
#147 = PERSON_AND_ORGANIZATION_ROLE ( 'classification_officer' ) ;
#148 = AXIS2_PLACEMENT_3D ( 'NONE', #3, #96, #194 ) ;
#149 = AXIS2_PLACEMENT_3D ( 'NONE', #75, #269, #76 ) ;
#150 = CALENDAR_DATE ( 2021, 30, 11 ) ;
#151 = DIRECTION ( 'NONE',  ( 4.275831445896958607E-31, 1.000000000000000000, 1.224646799147353454E-16 ) ) ;
#152 = CARTESIAN_POINT ( 'NONE',  ( 6.982962677686266711E-14, 1.079999999999997629, 20.00000000000000000 ) ) ;
#153 = CC_DESIGN_PERSON_AND_ORGANIZATION_ASSIGNMENT ( #239, #147, ( #121 ) ) ;
#154 = CARTESIAN_POINT ( 'NONE',  ( 6.982962677686266711E-14, -2.449293598294706513E-15, 20.00000000000000000 ) ) ;
#155 = CARTESIAN_POINT ( 'NONE',  ( 0.0000000000000000000, 0.0000000000000000000, 0.0000000000000000000 ) ) ;
#156 = FACE_OUTER_BOUND ( 'NONE', #118, .T. ) ;
#157 = CIRCLE ( 'NONE', #263, 1.110384493975580478 ) ;
#158 = LOCAL_TIME ( 7, 45, 1.000000000000000000, #160 ) ;
#159 = EDGE_LOOP ( 'NONE', ( #82 ) ) ;
#160 = COORDINATED_UNIVERSAL_TIME_OFFSET ( 1, 0, .AHEAD. ) ;
#161 = VERTEX_POINT ( 'NONE', #270 ) ;
#162 = FACE_OUTER_BOUND ( 'NONE', #213, .T. ) ;
#163 = CARTESIAN_POINT ( 'NONE',  ( 3.584309283006850024E-14, -1.257206458976207263E-15, 10.26586979896181973 ) ) ;
#164 = EDGE_LOOP ( 'NONE', ( #183 ) ) ;
#165 = FACE_OUTER_BOUND ( 'NONE', #275, .T. ) ;
#166 = CC_DESIGN_DATE_AND_TIME_ASSIGNMENT ( #177, #251, ( #121 ) ) ;
#167 = AXIS2_PLACEMENT_3D ( 'NONE', #43, #47, #85 ) ;
#168 = FACE_OUTER_BOUND ( 'NONE', #231, .T. ) ;
#169 = CALENDAR_DATE ( 2021, 30, 11 ) ;
#170 = EDGE_LOOP ( 'NONE', ( #248 ) ) ;
#171 = EDGE_CURVE ( 'NONE', #53, #53, #283, .T. ) ;
#172 = COORDINATED_UNIVERSAL_TIME_OFFSET ( 1, 0, .AHEAD. ) ;
#173 = ADVANCED_FACE ( 'NONE', ( #123, #156 ), #57, .T. ) ;
#174 = CARTESIAN_POINT ( 'NONE',  ( 7.875705019800163670E-14, 1.499999999999994005, 22.55691569129135843 ) ) ;
#175 = FACE_OUTER_BOUND ( 'NONE', #170, .T. ) ;
#176 = FACE_BOUND ( 'NONE', #206, .T. ) ;
#177 = DATE_AND_TIME ( #127, #158 ) ;
#178 = DIRECTION ( 'NONE',  ( -3.491481338843133355E-15, 1.224646799147353207E-16, -1.000000000000000000 ) ) ;
#179 = AXIS2_PLACEMENT_3D ( 'NONE', #12, #252, #61 ) ;
#180 = LOCAL_TIME ( 7, 45, 1.000000000000000000, #172 ) ;
#181 = EDGE_LOOP ( 'NONE', ( #250 ) ) ;
#182 = CARTESIAN_POINT ( 'NONE',  ( -1.382169576528100881E-31, 4.847998266360032292E-33, -3.958691003590094401E-17 ) ) ;
#183 = ORIENTED_EDGE ( 'NONE', *, *, #282, .T. ) ;
#184 = EDGE_LOOP ( 'NONE', ( #259 ) ) ;
#185 = CYLINDRICAL_SURFACE ( 'NONE', #91, 1.499999999999999112 ) ;
#186 = DESIGN_CONTEXT ( 'detailed design', #281, 'design' ) ;
#187 = TOROIDAL_SURFACE ( 'NONE', #112, 3.080000000000000071, 2.000000000000000000 ) ;
#188 = PERSON_AND_ORGANIZATION_ROLE ( 'design_supplier' ) ;
#189 = CIRCLE ( 'NONE', #50, 1.233499999999995378 ) ;
#190 = APPROVAL_STATUS ( 'not_yet_approved' ) ;
#191 = VERTEX_POINT ( 'NONE', #152 ) ;
#192 =( LENGTH_UNIT ( ) NAMED_UNIT ( * ) SI_UNIT ( .MILLI., .METRE. ) );
#193 = APPROVAL_PERSON_ORGANIZATION ( #69, #11, #116 ) ;
#194 = DIRECTION ( 'NONE',  ( 4.684061478039509954E-31, 1.000000000000000000, 1.318446095442451985E-16 ) ) ;
#195 = CARTESIAN_POINT ( 'NONE',  ( 0.0000000000000000000, 0.0000000000000000000, 0.0000000000000000000 ) ) ;
#196 = DIRECTION ( 'NONE',  ( 3.491481338843133355E-15, -1.224646799147353207E-16, 1.000000000000000000 ) ) ;
#197 = ORIENTED_EDGE ( 'NONE', *, *, #171, .T. ) ;
#198 = DATE_AND_TIME ( #229, #144 ) ;
#199 = VERTEX_POINT ( 'NONE', #230 ) ;
#200 = CIRCLE ( 'NONE', #22, 1.499999999999996669 ) ;
#201 = CIRCLE ( 'NONE', #149, 1.079999999999999183 ) ;
#202 = ORIENTED_EDGE ( 'NONE', *, *, #238, .F. ) ;
#203 = ADVANCED_FACE ( 'NONE', ( #225 ), #14, .F. ) ;
#204 = DIRECTION ( 'NONE',  ( 4.275831445896958607E-31, 1.000000000000000000, 1.224646799147353207E-16 ) ) ;
#205 = CC_DESIGN_PERSON_AND_ORGANIZATION_ASSIGNMENT ( #4, #188, ( #242 ) ) ;
#206 = EDGE_LOOP ( 'NONE', ( #40 ) ) ;
#207 = CIRCLE ( 'NONE', #78, 1.233499999999995378 ) ;
#208 = CC_DESIGN_APPROVAL ( #233, ( #242 ) ) ;
#209 = FACE_OUTER_BOUND ( 'NONE', #159, .T. ) ;
#210 = CIRCLE ( 'NONE', #260, 1.080000000000000071 ) ;
#211 = PERSON_AND_ORGANIZATION_ROLE ( 'creator' ) ;
#212 = PERSON_AND_ORGANIZATION ( #221, #92 ) ;
#213 = EDGE_LOOP ( 'NONE', ( #202 ) ) ;
#214 = LOCAL_TIME ( 7, 45, 1.000000000000000000, #267 ) ;
#215 = EDGE_LOOP ( 'NONE', ( #301 ) ) ;
#216 = DIRECTION ( 'NONE',  ( 0.0000000000000000000, 0.0000000000000000000, 1.000000000000000000 ) ) ;
#217 = APPLICATION_PROTOCOL_DEFINITION ( 'international standard', 'config_control_design', 1994, #281 ) ;
#218 = DIRECTION ( 'NONE',  ( -3.491481338843133355E-15, 1.224646799147353207E-16, -1.000000000000000000 ) ) ;
#219 = ORIENTED_EDGE ( 'NONE', *, *, #26, .F. ) ;
#220 = DIRECTION ( 'NONE',  ( -3.491481338843133355E-15, 1.224646799147353207E-16, -1.000000000000000000 ) ) ;
#221 = PERSON ( 'UNSPECIFIED', 'UNSPECIFIED', 'UNSPECIFIED', ('UNSPECIFIED'), ('UNSPECIFIED'), ('UNSPECIFIED') ) ;
#222 = APPROVAL_PERSON_ORGANIZATION ( #80, #104, #38 ) ;
#223 = DIRECTION ( 'NONE',  ( -3.491481338843133355E-15, 1.224646799147353207E-16, -1.000000000000000000 ) ) ;
#224 = EDGE_LOOP ( 'NONE', ( #226 ) ) ;
#225 = FACE_OUTER_BOUND ( 'NONE', #181, .T. ) ;
#226 = ORIENTED_EDGE ( 'NONE', *, *, #293, .T. ) ;
#227 = CARTESIAN_POINT ( 'NONE',  ( 1.892735826383160919E-31, 1.089162432702589722, 5.421010862427522170E-17 ) ) ;
#228 = ADVANCED_FACE ( 'NONE', ( #60 ), #101, .T. ) ;
#229 = CALENDAR_DATE ( 2021, 30, 11 ) ;
#230 = CARTESIAN_POINT ( 'NONE',  ( 1.735266225405037467E-13, 1.499999999999995559, 49.70000000000000284 ) ) ;
#231 = EDGE_LOOP ( 'NONE', ( #108 ) ) ;
#232 = COORDINATED_UNIVERSAL_TIME_OFFSET ( 1, 0, .AHEAD. ) ;
#233 = APPROVAL ( #190, 'UNSPECIFIED' ) ;
#234 = FACE_OUTER_BOUND ( 'NONE', #288, .T. ) ;
#235 = AXIS2_PLACEMENT_3D ( 'NONE', #42, #137, #257 ) ;
#236 = AXIS2_PLACEMENT_3D ( 'NONE', #93, #216, #291 ) ;
#237 = EDGE_CURVE ( 'NONE', #9, #9, #200, .T. ) ;
#238 = EDGE_CURVE ( 'NONE', #191, #191, #210, .T. ) ;
#239 = PERSON_AND_ORGANIZATION ( #221, #92 ) ;
#240 = ORIENTED_EDGE ( 'NONE', *, *, #238, .T. ) ;
#241 = PERSON_AND_ORGANIZATION ( #221, #92 ) ;
#242 = PRODUCT_DEFINITION_FORMATION_WITH_SPECIFIED_SOURCE ( 'ANY', '', #146, .NOT_KNOWN. ) ;
#243 = ORIENTED_EDGE ( 'NONE', *, *, #293, .F. ) ;
#244 = PERSON_AND_ORGANIZATION_ROLE ( 'creator' ) ;
#245 = PRODUCT_DEFINITION_SHAPE ( 'NONE', 'NONE',  #115 ) ;
#246 = APPROVAL_DATE_TIME ( #145, #233 ) ;
#247 = FACE_OUTER_BOUND ( 'NONE', #215, .T. ) ;
#248 = ORIENTED_EDGE ( 'NONE', *, *, #26, .T. ) ;
#249 = FACE_OUTER_BOUND ( 'NONE', #103, .T. ) ;
#250 = ORIENTED_EDGE ( 'NONE', *, *, #72, .T. ) ;
#251 = DATE_TIME_ROLE ( 'classification_date' ) ;
#252 = DIRECTION ( 'NONE',  ( 3.491481338843133355E-15, -1.224646799147353207E-16, 1.000000000000000000 ) ) ;
#253 = DIRECTION ( 'NONE',  ( -3.491481338843133355E-15, 1.224646799147353207E-16, -1.000000000000000000 ) ) ;
#254 = CARTESIAN_POINT ( 'NONE',  ( 0.0000000000000000000, 0.0000000000000000000, 0.0000000000000000000 ) ) ;
#255 = ORIENTED_EDGE ( 'NONE', *, *, #89, .T. ) ;
#256 = CC_DESIGN_PERSON_AND_ORGANIZATION_ASSIGNMENT ( #212, #90, ( #146 ) ) ;
#257 = DIRECTION ( 'NONE',  ( 0.0000000000000000000, 1.000000000000000000, 0.0000000000000000000 ) ) ;
#258 = FACE_BOUND ( 'NONE', #164, .T. ) ;
#259 = ORIENTED_EDGE ( 'NONE', *, *, #237, .F. ) ;
#260 = AXIS2_PLACEMENT_3D ( 'NONE', #154, #218, #81 ) ;
#261 = ADVANCED_FACE ( 'NONE', ( #176, #128 ), #5, .T. ) ;
#262 = CC_DESIGN_PERSON_AND_ORGANIZATION_ASSIGNMENT ( #31, #211, ( #242 ) ) ;
#263 = AXIS2_PLACEMENT_3D ( 'NONE', #35, #296, #280 ) ;
#264 = APPLICATION_PROTOCOL_DEFINITION ( 'international standard', 'config_control_design', 1994, #49 ) ;
#265 = DATE_AND_TIME ( #169, #214 ) ;
#266 = CALENDAR_DATE ( 2021, 30, 11 ) ;
#267 = COORDINATED_UNIVERSAL_TIME_OFFSET ( 1, 0, .AHEAD. ) ;
#268 = MECHANICAL_CONTEXT ( 'NONE', #49, 'mechanical' ) ;
#269 = DIRECTION ( 'NONE',  ( -3.491481338843133355E-15, 1.224646799147353207E-16, -1.000000000000000000 ) ) ;
#270 = CARTESIAN_POINT ( 'NONE',  ( 7.104220552055900573E-14, 1.110384493975578257, 20.34729635533384240 ) ) ;
#271 = AXIS2_PLACEMENT_3D ( 'NONE', #254, #19, #299 ) ;
#272 = SHAPE_DEFINITION_REPRESENTATION ( #245, #45 ) ;
#273 = APPROVAL_PERSON_ORGANIZATION ( #241, #233, #70 ) ;
#274 = VERTEX_POINT ( 'NONE', #131 ) ;
#275 = EDGE_LOOP ( 'NONE', ( #255 ) ) ;
#276 = DIRECTION ( 'NONE',  ( 0.0000000000000000000, 1.000000000000000000, 0.0000000000000000000 ) ) ;
#277 = EDGE_LOOP ( 'NONE', ( #219 ) ) ;
#278 = ADVANCED_FACE ( 'NONE', ( #247, #32 ), #126, .T. ) ;
#279 = DIRECTION ( 'NONE',  ( 0.0000000000000000000, 1.000000000000000000, 0.0000000000000000000 ) ) ;
#280 = DIRECTION ( 'NONE',  ( 0.0000000000000000000, 1.000000000000000000, 0.0000000000000000000 ) ) ;
#281 = APPLICATION_CONTEXT ( 'configuration controlled 3d designs of mechanical parts and assemblies' ) ;
#282 = EDGE_CURVE ( 'NONE', #119, #119, #141, .T. ) ;
#283 = CIRCLE ( 'NONE', #148, 1.233499999999994046 ) ;
#284 = AXIS2_PLACEMENT_3D ( 'NONE', #195, #178, #133 ) ;
#285 = ADVANCED_FACE ( 'NONE', ( #249, #175 ), #98, .T. ) ;
#286 = SECURITY_CLASSIFICATION_LEVEL ( 'unclassified' ) ;
#287 = DIRECTION ( 'NONE',  ( -3.491481338843133355E-15, 1.224646799147353207E-16, -1.000000000000000000 ) ) ;
#288 = EDGE_LOOP ( 'NONE', ( #197 ) ) ;
#289 = APPROVAL_STATUS ( 'not_yet_approved' ) ;
#290 = CONICAL_SURFACE ( 'NONE', #235, 1.200000000000001732, 0.7853981633974453924 ) ;
#291 = DIRECTION ( 'NONE',  ( 1.000000000000000000, 0.0000000000000000000, 0.0000000000000000000 ) ) ;
#292 = DIRECTION ( 'NONE',  ( 3.491481338843133355E-15, -1.224646799147353207E-16, 1.000000000000000000 ) ) ;
#293 = EDGE_CURVE ( 'NONE', #67, #67, #201, .T. ) ;
#294 = DIRECTION ( 'NONE',  ( -3.491481338843133355E-15, 1.224646799147353207E-16, -1.000000000000000000 ) ) ;
#295 = DIRECTION ( 'NONE',  ( -3.491481338843133355E-15, 1.224646799147353207E-16, -1.000000000000000000 ) ) ;
#296 = DIRECTION ( 'NONE',  ( -3.491481338843133355E-15, 1.224646799147353207E-16, -1.000000000000000000 ) ) ;
#297 = AXIS2_PLACEMENT_3D ( 'NONE', #139, #140, #110 ) ;
#298 =( GEOMETRIC_REPRESENTATION_CONTEXT ( 3 ) GLOBAL_UNCERTAINTY_ASSIGNED_CONTEXT ( ( #23 ) ) GLOBAL_UNIT_ASSIGNED_CONTEXT ( ( #192, #28, #94 ) ) REPRESENTATION_CONTEXT ( 'NONE', 'WORKASPACE' ) );
#299 = DIRECTION ( 'NONE',  ( 4.275831445896957731E-31, 1.000000000000000000, 1.224646799147352961E-16 ) ) ;
#300 = CARTESIAN_POINT ( 'NONE',  ( 3.491481338843133355E-14, -1.224646799147353256E-15, 10.00000000000000000 ) ) ;
#301 = ORIENTED_EDGE ( 'NONE', *, *, #89, .F. ) ;
#302 = CARTESIAN_POINT ( 'NONE',  ( 3.491481338843133355E-14, -1.224646799147353256E-15, 10.00000000000000000 ) ) ;
#303 = DIRECTION ( 'NONE',  ( 3.491481338843133355E-15, -1.224646799147353207E-16, 1.000000000000000000 ) ) ;
ENDSEC;
END-ISO-10303-21;
