ISO-10303-21;
HEADER;
FILE_DESCRIPTION (( 'STEP AP203' ),
    '1' );
FILE_NAME ('326983.step',
    '2021-11-30T06:45:01',
    ( '' ),
    ( '' ),
    'SwSTEP 2.0',
    'SolidWorks 2019',
    '' );
FILE_SCHEMA (( 'CONFIG_CONTROL_DESIGN' ));
ENDSEC;

DATA;
#1 = COORDINATED_UNIVERSAL_TIME_OFFSET ( 1, 0, .AHEAD. ) ;
#2 = FACE_OUTER_BOUND ( 'NONE', #227, .T. ) ;
#3 = PRODUCT_DEFINITION_FORMATION_WITH_SPECIFIED_SOURCE ( 'ANY', '', #38, .NOT_KNOWN. ) ;
#4 = CC_DESIGN_PERSON_AND_ORGANIZATION_ASSIGNMENT ( #88, #295, ( #195 ) ) ;
#5 = CIRCLE ( 'NONE', #166, 1.200000000000001732 ) ;
#6 = CARTESIAN_POINT ( 'NONE',  ( 0.0000000000000000000, 0.0000000000000000000, 0.0000000000000000000 ) ) ;
#7 = DIRECTION ( 'NONE',  ( 0.0000000000000000000, 1.000000000000000000, 0.0000000000000000000 ) ) ;
#8 = APPROVAL_ROLE ( '' ) ;
#9 = MECHANICAL_CONTEXT ( 'NONE', #159, 'mechanical' ) ;
#10 = DIRECTION ( 'NONE',  ( -3.491481338843133355E-15, 1.224646799147353207E-16, -1.000000000000000000 ) ) ;
#11 = DIRECTION ( 'NONE',  ( -3.491481338843133355E-15, 1.224646799147353207E-16, -1.000000000000000000 ) ) ;
#12 = CC_DESIGN_APPROVAL ( #266, ( #216 ) ) ;
#13 = FACE_OUTER_BOUND ( 'NONE', #19, .T. ) ;
#14 = ADVANCED_FACE ( 'NONE', ( #13, #2 ), #21, .T. ) ;
#15 = DATE_AND_TIME ( #45, #24 ) ;
#16 = CARTESIAN_POINT ( 'NONE',  ( 2.793185071074506684E-14, 8.574876557369117968E-33, 8.000000000000000000 ) ) ;
#17 = DIRECTION ( 'NONE',  ( -3.491481338843133355E-15, 1.224646799147353207E-16, -1.000000000000000000 ) ) ;
#18 = DIRECTION ( 'NONE',  ( 0.0000000000000000000, 1.000000000000000000, 0.0000000000000000000 ) ) ;
#19 = EDGE_LOOP ( 'NONE', ( #23 ) ) ;
#20 = DATE_TIME_ROLE ( 'creation_date' ) ;
#21 = CYLINDRICAL_SURFACE ( 'NONE', #124, 0.9899999999999995470 ) ;
#22 = APPROVAL_PERSON_ORGANIZATION ( #29, #280, #8 ) ;
#23 = ORIENTED_EDGE ( 'NONE', *, *, #65, .F. ) ;
#24 = LOCAL_TIME ( 7, 45, 1.000000000000000000, #302 ) ;
#25 = DESIGN_CONTEXT ( 'detailed design', #67, 'design' ) ;
#26 = CC_DESIGN_PERSON_AND_ORGANIZATION_ASSIGNMENT ( #194, #96, ( #38 ) ) ;
#27 = VERTEX_POINT ( 'NONE', #238 ) ;
#28 = VERTEX_POINT ( 'NONE', #150 ) ;
#29 = PERSON_AND_ORGANIZATION ( #97, #76 ) ;
#30 = CLOSED_SHELL ( 'NONE', ( #211, #301, #14, #48, #186, #162, #89, #125 ) ) ;
#31 = CARTESIAN_POINT ( 'NONE',  ( -1.892735826383161356E-31, 0.9991624327025895314, -5.421010862427522170E-17 ) ) ;
#32 = DIRECTION ( 'NONE',  ( 3.491481338843133355E-15, -1.224646799147353207E-16, 1.000000000000000000 ) ) ;
#33 = PRODUCT_RELATED_PRODUCT_CATEGORY ( 'detail', '', ( #38 ) ) ;
#34 = DIRECTION ( 'NONE',  ( 3.491481338843133355E-15, -1.224646799147353207E-16, 1.000000000000000000 ) ) ;
#35 = DIRECTION ( 'NONE',  ( -3.491481338843133355E-15, 1.224646799147353207E-16, -1.000000000000000000 ) ) ;
#36 = DIRECTION ( 'NONE',  ( -5.052723946796447756E-31, -1.000000000000000000, -1.422215355249903998E-16 ) ) ;
#37 = ORIENTED_EDGE ( 'NONE', *, *, #146, .T. ) ;
#38 = PRODUCT ( '326983', '326983', '', ( #9 ) ) ;
#39 = DIRECTION ( 'NONE',  ( 0.0000000000000000000, 1.000000000000000000, 0.0000000000000000000 ) ) ;
#40 = ORIENTED_EDGE ( 'NONE', *, *, #65, .T. ) ;
#41 = EDGE_LOOP ( 'NONE', ( #141 ) ) ;
#42 = AXIS2_PLACEMENT_3D ( 'NONE', #165, #79, #61 ) ;
#43 = DIRECTION ( 'NONE',  ( -3.491481338843133355E-15, 1.224646799147353207E-16, -1.000000000000000000 ) ) ;
#44 = AXIS2_PLACEMENT_3D ( 'NONE', #265, #261, #7 ) ;
#45 = CALENDAR_DATE ( 2021, 30, 11 ) ;
#46 = ORIENTED_EDGE ( 'NONE', *, *, #73, .F. ) ;
#47 = CONICAL_SURFACE ( 'NONE', #174, 1.499999999999996669, 0.1745329251994259812 ) ;
#48 = ADVANCED_FACE ( 'NONE', ( #183, #246 ), #217, .F. ) ;
#49 = APPROVAL_STATUS ( 'not_yet_approved' ) ;
#50 = DIRECTION ( 'NONE',  ( 0.0000000000000000000, 0.0000000000000000000, 1.000000000000000000 ) ) ;
#51 = VERTEX_POINT ( 'NONE', #169 ) ;
#52 = CARTESIAN_POINT ( 'NONE',  ( 6.405924284287273902E-14, 1.020384493975578399, 18.34729635533384240 ) ) ;
#53 = AXIS2_PLACEMENT_3D ( 'NONE', #135, #219, #128 ) ;
#54 = CC_DESIGN_DATE_AND_TIME_ASSIGNMENT ( #15, #20, ( #195 ) ) ;
#55 = CARTESIAN_POINT ( 'NONE',  ( 2.793185071074506684E-14, -9.797174393178825657E-16, 8.000000000000000000 ) ) ;
#56 = ORIENTED_EDGE ( 'NONE', *, *, #262, .T. ) ;
#57 = FACE_OUTER_BOUND ( 'NONE', #119, .T. ) ;
#58 = DIRECTION ( 'NONE',  ( -3.491481338843133355E-15, 1.224646799147353207E-16, -1.000000000000000000 ) ) ;
#59 = CC_DESIGN_APPROVAL ( #168, ( #3 ) ) ;
#60 = DIRECTION ( 'NONE',  ( -3.491481338843133355E-15, 1.224646799147353207E-16, -1.000000000000000000 ) ) ;
#61 = DIRECTION ( 'NONE',  ( 0.0000000000000000000, 1.000000000000000000, 0.0000000000000000000 ) ) ;
#62 = ORIENTED_EDGE ( 'NONE', *, *, #240, .F. ) ;
#63 = CALENDAR_DATE ( 2021, 30, 11 ) ;
#64 = CONICAL_SURFACE ( 'NONE', #230, 1.143499999999993966, 0.5235987755982925984 ) ;
#65 = EDGE_CURVE ( 'NONE', #99, #99, #94, .T. ) ;
#66 = EDGE_LOOP ( 'NONE', ( #121 ) ) ;
#67 = APPLICATION_CONTEXT ( 'configuration controlled 3d designs of mechanical parts and assemblies' ) ;
#68 = VERTEX_POINT ( 'NONE', #241 ) ;
#69 = VERTEX_POINT ( 'NONE', #126 ) ;
#70 = EDGE_CURVE ( 'NONE', #69, #69, #205, .T. ) ;
#71 = FACE_OUTER_BOUND ( 'NONE', #270, .T. ) ;
#72 = CARTESIAN_POINT ( 'NONE',  ( 6.284666409917640040E-14, 0.9899999999999977707, 18.00000000000000000 ) ) ;
#73 = EDGE_CURVE ( 'NONE', #213, #213, #204, .T. ) ;
#74 = CALENDAR_DATE ( 2021, 30, 11 ) ;
#75 = AXIS2_PLACEMENT_3D ( 'NONE', #253, #251, #134 ) ;
#76 = ORGANIZATION ( 'UNSPECIFIED', 'UNSPECIFIED', '' ) ;
#77 = FACE_OUTER_BOUND ( 'NONE', #85, .T. ) ;
#78 = PLANE ( 'NONE',  #263 ) ;
#79 = DIRECTION ( 'NONE',  ( -3.491481338843133355E-15, 1.224646799147353207E-16, -1.000000000000000000 ) ) ;
#80 = PERSON_AND_ORGANIZATION_ROLE ( 'creator' ) ;
#81 = DIRECTION ( 'NONE',  ( 0.0000000000000000000, -1.000000000000000000, 0.0000000000000000000 ) ) ;
#82 = PLANE ( 'NONE',  #75 ) ;
#83 = APPROVAL_ROLE ( '' ) ;
#84 = DIRECTION ( 'NONE',  ( 3.491481338843133355E-15, -1.224646799147353207E-16, 1.000000000000000000 ) ) ;
#85 = EDGE_LOOP ( 'NONE', ( #254 ) ) ;
#86 = DATE_AND_TIME ( #116, #100 ) ;
#87 = DIRECTION ( 'NONE',  ( 4.275831445896958607E-31, 1.000000000000000000, 1.224646799147353207E-16 ) ) ;
#88 = PERSON_AND_ORGANIZATION ( #97, #76 ) ;
#89 = ADVANCED_FACE ( 'NONE', ( #177, #161 ), #290, .T. ) ;
#90 = CARTESIAN_POINT ( 'NONE',  ( 0.0000000000000000000, 0.0000000000000000000, 0.0000000000000000000 ) ) ;
#91 = APPROVAL_STATUS ( 'not_yet_approved' ) ;
#92 = CIRCLE ( 'NONE', #142, 1.020384493975580620 ) ;
#93 = ORIENTED_EDGE ( 'NONE', *, *, #70, .T. ) ;
#94 = CIRCLE ( 'NONE', #42, 0.9899999999999988809 ) ;
#95 = CIRCLE ( 'NONE', #193, 1.143499999999995076 ) ;
#96 = PERSON_AND_ORGANIZATION_ROLE ( 'design_owner' ) ;
#97 = PERSON ( 'UNSPECIFIED', 'UNSPECIFIED', 'UNSPECIFIED', ('UNSPECIFIED'), ('UNSPECIFIED'), ('UNSPECIFIED') ) ;
#98 = FACE_BOUND ( 'NONE', #117, .T. ) ;
#99 = VERTEX_POINT ( 'NONE', #214 ) ;
#100 = LOCAL_TIME ( 7, 45, 1.000000000000000000, #178 ) ;
#101 = CC_DESIGN_DATE_AND_TIME_ASSIGNMENT ( #86, #199, ( #216 ) ) ;
#102 = FACE_BOUND ( 'NONE', #278, .T. ) ;
#103 = CIRCLE ( 'NONE', #283, 0.9991624327025895314 ) ;
#104 =( GEOMETRIC_REPRESENTATION_CONTEXT ( 3 ) GLOBAL_UNCERTAINTY_ASSIGNED_CONTEXT ( ( #145 ) ) GLOBAL_UNIT_ASSIGNED_CONTEXT ( ( #191, #267, #149 ) ) REPRESENTATION_CONTEXT ( 'NONE', 'WORKASPACE' ) );
#105 = MANIFOLD_SOLID_BREP ( 'Corps-Déplacer/Copier1[2]', #173 ) ;
#106 = CARTESIAN_POINT ( 'NONE',  ( -3.082492987845898715E-31, 1.081192996497709214E-32, -8.828610806401306383E-17 ) ) ;
#107 = DIRECTION ( 'NONE',  ( -3.491481338843133355E-15, 1.224646799147353207E-16, -1.000000000000000000 ) ) ;
#108 = PERSON_AND_ORGANIZATION_ROLE ( 'classification_officer' ) ;
#109 = DIRECTION ( 'NONE',  ( -3.491481338843133355E-15, 1.224646799147353207E-16, -1.000000000000000000 ) ) ;
#110 = CARTESIAN_POINT ( 'NONE',  ( 7.355619323796183747E-14, -2.580003954315315073E-15, 21.06733105505697168 ) ) ;
#111 = EDGE_CURVE ( 'NONE', #68, #68, #5, .T. ) ;
#112 = APPROVAL_DATE_TIME ( #184, #168 ) ;
#113 = CARTESIAN_POINT ( 'NONE',  ( 0.0000000000000000000, 0.0000000000000000000, 0.0000000000000000000 ) ) ;
#114 = EDGE_LOOP ( 'NONE', ( #163 ) ) ;
#115 = AXIS2_PLACEMENT_3D ( 'NONE', #129, #58, #158 ) ;
#116 = CALENDAR_DATE ( 2021, 30, 11 ) ;
#117 = EDGE_LOOP ( 'NONE', ( #40 ) ) ;
#118 = CC_DESIGN_PERSON_AND_ORGANIZATION_ASSIGNMENT ( #228, #108, ( #216 ) ) ;
#119 = EDGE_LOOP ( 'NONE', ( #284 ) ) ;
#120 = LOCAL_TIME ( 7, 45, 1.000000000000000000, #1 ) ;
#121 = ORIENTED_EDGE ( 'NONE', *, *, #233, .F. ) ;
#122 = FACE_BOUND ( 'NONE', #41, .T. ) ;
#123 = APPROVAL_DATE_TIME ( #172, #280 ) ;
#124 = AXIS2_PLACEMENT_3D ( 'NONE', #90, #303, #87 ) ;
#125 = ADVANCED_FACE ( 'NONE', ( #297 ), #82, .F. ) ;
#126 = CARTESIAN_POINT ( 'NONE',  ( 7.355619323796183747E-14, 1.499999999999994005, 21.06733105505697168 ) ) ;
#127 = FACE_OUTER_BOUND ( 'NONE', #207, .T. ) ;
#128 = DIRECTION ( 'NONE',  ( 0.0000000000000000000, 1.000000000000000000, 0.0000000000000000000 ) ) ;
#129 = CARTESIAN_POINT ( 'NONE',  ( 1.745740669421566678E-13, -6.123233995736766085E-15, 50.00000000000000000 ) ) ;
#130 = AXIS2_PLACEMENT_3D ( 'NONE', #6, #50, #215 ) ;
#131 = DIRECTION ( 'NONE',  ( 3.491481338843133355E-15, -1.224646799147353207E-16, 1.000000000000000000 ) ) ;
#132 = DIRECTION ( 'NONE',  ( 0.0000000000000000000, 1.000000000000000000, 0.0000000000000000000 ) ) ;
#133 = ADVANCED_FACE ( 'NONE', ( #122, #252 ), #64, .T. ) ;
#134 = DIRECTION ( 'NONE',  ( 4.275831445896958607E-31, 1.000000000000000000, 1.224646799147353207E-16 ) ) ;
#135 = CARTESIAN_POINT ( 'NONE',  ( 1.735266225405037467E-13, -6.086494591762345225E-15, 49.70000000000000284 ) ) ;
#136 = EDGE_CURVE ( 'NONE', #51, #51, #236, .T. ) ;
#137 = EDGE_LOOP ( 'NONE', ( #56 ) ) ;
#138 = ORIENTED_EDGE ( 'NONE', *, *, #136, .F. ) ;
#139 = EDGE_CURVE ( 'NONE', #147, #147, #103, .T. ) ;
#140 = LOCAL_TIME ( 7, 45, 1.000000000000000000, #206 ) ;
#141 = ORIENTED_EDGE ( 'NONE', *, *, #139, .F. ) ;
#142 = AXIS2_PLACEMENT_3D ( 'NONE', #245, #10, #18 ) ;
#143 = PERSON_AND_ORGANIZATION_ROLE ( 'design_supplier' ) ;
#144 = EDGE_LOOP ( 'NONE', ( #182 ) ) ;
#145 = UNCERTAINTY_MEASURE_WITH_UNIT (LENGTH_MEASURE( 1.000000000000000082E-05 ), #191, 'distance_accuracy_value', 'NONE');
#146 = EDGE_CURVE ( 'NONE', #287, #287, #92, .T. ) ;
#147 = VERTEX_POINT ( 'NONE', #31 ) ;
#148 = AXIS2_PLACEMENT_3D ( 'NONE', #55, #154, #39 ) ;
#149 =( NAMED_UNIT ( * ) SI_UNIT ( $, .STERADIAN. ) SOLID_ANGLE_UNIT ( ) );
#150 = CARTESIAN_POINT ( 'NONE',  ( 2.793185071074506684E-14, 1.143499999999993966, 8.000000000000000000 ) ) ;
#151 = APPLICATION_PROTOCOL_DEFINITION ( 'international standard', 'config_control_design', 1994, #159 ) ;
#152 = CIRCLE ( 'NONE', #148, 1.143499999999995076 ) ;
#153 = DIRECTION ( 'NONE',  ( 0.0000000000000000000, 1.000000000000000000, 0.0000000000000000000 ) ) ;
#154 = DIRECTION ( 'NONE',  ( -3.491481338843133355E-15, 1.224646799147353207E-16, -1.000000000000000000 ) ) ;
#155 = DIRECTION ( 'NONE',  ( 4.275831445896958607E-31, 1.000000000000000000, 1.224646799147353207E-16 ) ) ;
#156 = PERSON_AND_ORGANIZATION ( #97, #76 ) ;
#157 = DIRECTION ( 'NONE',  ( 4.275831445896958607E-31, 1.000000000000000000, 1.224646799147353454E-16 ) ) ;
#158 = DIRECTION ( 'NONE',  ( 0.0000000000000000000, 1.000000000000000000, 0.0000000000000000000 ) ) ;
#159 = APPLICATION_CONTEXT ( 'configuration controlled 3d designs of mechanical parts and assemblies' ) ;
#160 = DIRECTION ( 'NONE',  ( 5.052723946796447756E-31, 1.000000000000000000, 1.422215355249903998E-16 ) ) ;
#161 = FACE_BOUND ( 'NONE', #276, .T. ) ;
#162 = ADVANCED_FACE ( 'NONE', ( #57, #220 ), #202, .T. ) ;
#163 = ORIENTED_EDGE ( 'NONE', *, *, #136, .T. ) ;
#164 = SECURITY_CLASSIFICATION_LEVEL ( 'unclassified' ) ;
#165 = CARTESIAN_POINT ( 'NONE',  ( 2.886013015238223353E-14, -1.012277099146736572E-15, 8.265869798961819725 ) ) ;
#166 = AXIS2_PLACEMENT_3D ( 'NONE', #224, #17, #201 ) ;
#167 = AXIS2_PLACEMENT_3D ( 'NONE', #275, #60, #160 ) ;
#168 = APPROVAL ( #91, 'UNSPECIFIED' ) ;
#169 = CARTESIAN_POINT ( 'NONE',  ( 1.735266225405037467E-13, 1.499999999999995559, 49.70000000000000284 ) ) ;
#170 = FACE_OUTER_BOUND ( 'NONE', #144, .T. ) ;
#171 = DIRECTION ( 'NONE',  ( -3.491481338843133355E-15, 1.224646799147353207E-16, -1.000000000000000000 ) ) ;
#172 = DATE_AND_TIME ( #74, #257 ) ;
#173 = CLOSED_SHELL ( 'NONE', ( #188, #133, #273, #243 ) ) ;
#174 = AXIS2_PLACEMENT_3D ( 'NONE', #248, #84, #81 ) ;
#175 = DIRECTION ( 'NONE',  ( 4.275831445896958607E-31, 1.000000000000000000, 1.224646799147353207E-16 ) ) ;
#176 = CARTESIAN_POINT ( 'NONE',  ( 8.728703347107829444E-16, -3.061616997868381785E-17, 0.2499999999999998890 ) ) ;
#177 = FACE_OUTER_BOUND ( 'NONE', #249, .T. ) ;
#178 = COORDINATED_UNIVERSAL_TIME_OFFSET ( 1, 0, .AHEAD. ) ;
#179 = DIRECTION ( 'NONE',  ( -4.275831445896958607E-31, -1.000000000000000000, -1.224646799147353207E-16 ) ) ;
#180 = CARTESIAN_POINT ( 'NONE',  ( 6.284666409917640040E-14, -2.204364238465235428E-15, 18.00000000000000000 ) ) ;
#181 = PERSON_AND_ORGANIZATION ( #97, #76 ) ;
#182 = ORIENTED_EDGE ( 'NONE', *, *, #233, .T. ) ;
#183 = FACE_OUTER_BOUND ( 'NONE', #272, .T. ) ;
#184 = DATE_AND_TIME ( #63, #140 ) ;
#185 = SHAPE_DEFINITION_REPRESENTATION ( #258, #209 ) ;
#186 = ADVANCED_FACE ( 'NONE', ( #102, #298 ), #47, .T. ) ;
#187 = EDGE_LOOP ( 'NONE', ( #203 ) ) ;
#188 = ADVANCED_FACE ( 'NONE', ( #196 ), #291, .F. ) ;
#189 = AXIS2_PLACEMENT_3D ( 'NONE', #110, #107, #132 ) ;
#190 = APPLICATION_PROTOCOL_DEFINITION ( 'international standard', 'config_control_design', 1994, #67 ) ;
#191 =( LENGTH_UNIT ( ) NAMED_UNIT ( * ) SI_UNIT ( .MILLI., .METRE. ) );
#192 = VERTEX_POINT ( 'NONE', #288 ) ;
#193 = AXIS2_PLACEMENT_3D ( 'NONE', #198, #109, #153 ) ;
#194 = PERSON_AND_ORGANIZATION ( #97, #76 ) ;
#195 = PRODUCT_DEFINITION ( 'UNKNOWN', '', #3, #25 ) ;
#196 = FACE_OUTER_BOUND ( 'NONE', #187, .T. ) ;
#197 = APPROVAL_PERSON_ORGANIZATION ( #225, #266, #83 ) ;
#198 = CARTESIAN_POINT ( 'NONE',  ( 2.793185071074506684E-14, -9.797174393178825657E-16, 8.000000000000000000 ) ) ;
#199 = DATE_TIME_ROLE ( 'classification_date' ) ;
#200 = PLANE ( 'NONE',  #212 ) ;
#201 = DIRECTION ( 'NONE',  ( 0.0000000000000000000, 1.000000000000000000, 0.0000000000000000000 ) ) ;
#202 = CYLINDRICAL_SURFACE ( 'NONE', #260, 1.499999999999999112 ) ;
#203 = ORIENTED_EDGE ( 'NONE', *, *, #139, .T. ) ;
#204 = CIRCLE ( 'NONE', #222, 0.9899999999999999911 ) ;
#205 = CIRCLE ( 'NONE', #189, 1.499999999999996669 ) ;
#206 = COORDINATED_UNIVERSAL_TIME_OFFSET ( 1, 0, .AHEAD. ) ;
#207 = EDGE_LOOP ( 'NONE', ( #259 ) ) ;
#208 = ORIENTED_EDGE ( 'NONE', *, *, #111, .F. ) ;
#209 = ADVANCED_BREP_SHAPE_REPRESENTATION ( '326983', ( #210, #105, #130 ), #104 ) ;
#210 = MANIFOLD_SOLID_BREP ( 'Corps-Déplacer/Copier1[1]', #30 ) ;
#211 = ADVANCED_FACE ( 'NONE', ( #77 ), #78, .F. ) ;
#212 = AXIS2_PLACEMENT_3D ( 'NONE', #296, #32, #179 ) ;
#213 = VERTEX_POINT ( 'NONE', #72 ) ;
#214 = CARTESIAN_POINT ( 'NONE',  ( 2.886013015238223353E-14, 0.9899999999999977707, 8.265869798961819725 ) ) ;
#215 = DIRECTION ( 'NONE',  ( 1.000000000000000000, 0.0000000000000000000, 0.0000000000000000000 ) ) ;
#216 = SECURITY_CLASSIFICATION ( '', '', #164 ) ;
#217 = TOROIDAL_SURFACE ( 'NONE', #286, 2.990000000000000213, 2.000000000000000000 ) ;
#218 = CC_DESIGN_PERSON_AND_ORGANIZATION_ASSIGNMENT ( #247, #143, ( #3 ) ) ;
#219 = DIRECTION ( 'NONE',  ( -3.491481338843133355E-15, 1.224646799147353207E-16, -1.000000000000000000 ) ) ;
#220 = FACE_OUTER_BOUND ( 'NONE', #114, .T. ) ;
#221 = ORIENTED_EDGE ( 'NONE', *, *, #111, .T. ) ;
#222 = AXIS2_PLACEMENT_3D ( 'NONE', #180, #35, #294 ) ;
#223 = DIRECTION ( 'NONE',  ( -4.275831445896958607E-31, -1.000000000000000000, -1.224646799147353207E-16 ) ) ;
#224 = CARTESIAN_POINT ( 'NONE',  ( 1.745740669421566678E-13, -6.123233995736766085E-15, 50.00000000000000000 ) ) ;
#225 = PERSON_AND_ORGANIZATION ( #97, #76 ) ;
#226 = CARTESIAN_POINT ( 'NONE',  ( -6.164985975691797429E-31, 2.162385992995418427E-32, -1.765722161280261277E-16 ) ) ;
#227 = EDGE_LOOP ( 'NONE', ( #299 ) ) ;
#228 = PERSON_AND_ORGANIZATION ( #97, #76 ) ;
#229 = EDGE_LOOP ( 'NONE', ( #93 ) ) ;
#230 = AXIS2_PLACEMENT_3D ( 'NONE', #176, #271, #36 ) ;
#231 = APPROVAL_STATUS ( 'not_yet_approved' ) ;
#232 = EDGE_LOOP ( 'NONE', ( #208 ) ) ;
#233 = EDGE_CURVE ( 'NONE', #27, #27, #152, .T. ) ;
#234 = APPROVAL_ROLE ( '' ) ;
#235 = DIRECTION ( 'NONE',  ( 4.275831445896958607E-31, 1.000000000000000000, 1.224646799147352961E-16 ) ) ;
#236 = CIRCLE ( 'NONE', #53, 1.500000000000001554 ) ;
#237 = CC_DESIGN_APPROVAL ( #280, ( #195 ) ) ;
#238 = CARTESIAN_POINT ( 'NONE',  ( 2.793185071074506684E-14, 1.143499999999993966, 8.000000000000000000 ) ) ;
#239 = CYLINDRICAL_SURFACE ( 'NONE', #242, 1.143499999999994410 ) ;
#240 = EDGE_CURVE ( 'NONE', #28, #28, #95, .T. ) ;
#241 = CARTESIAN_POINT ( 'NONE',  ( 1.745740669421566678E-13, 1.199999999999995515, 50.00000000000000000 ) ) ;
#242 = AXIS2_PLACEMENT_3D ( 'NONE', #264, #171, #235 ) ;
#243 = ADVANCED_FACE ( 'NONE', ( #244 ), #200, .T. ) ;
#244 = FACE_OUTER_BOUND ( 'NONE', #66, .T. ) ;
#245 = CARTESIAN_POINT ( 'NONE',  ( 6.405924284287273902E-14, -2.246895775456748746E-15, 18.34729635533384240 ) ) ;
#246 = FACE_OUTER_BOUND ( 'NONE', #281, .T. ) ;
#247 = PERSON_AND_ORGANIZATION ( #97, #76 ) ;
#248 = CARTESIAN_POINT ( 'NONE',  ( 7.355619323796183747E-14, -2.580003954315315073E-15, 21.06733105505697168 ) ) ;
#249 = EDGE_LOOP ( 'NONE', ( #138 ) ) ;
#250 = APPROVAL_PERSON_ORGANIZATION ( #156, #168, #234 ) ;
#251 = DIRECTION ( 'NONE',  ( -3.491481338843133355E-15, 1.224646799147353207E-16, -1.000000000000000000 ) ) ;
#252 = FACE_OUTER_BOUND ( 'NONE', #137, .T. ) ;
#253 = CARTESIAN_POINT ( 'NONE',  ( 1.745740669421566678E-13, 8.998558695971067645E-33, 50.00000000000000000 ) ) ;
#254 = ORIENTED_EDGE ( 'NONE', *, *, #240, .T. ) ;
#255 = CARTESIAN_POINT ( 'NONE',  ( 6.284666409917640040E-14, -2.168404344971008868E-15, 18.00000000000000000 ) ) ;
#256 = CC_DESIGN_PERSON_AND_ORGANIZATION_ASSIGNMENT ( #181, #80, ( #3 ) ) ;
#257 = LOCAL_TIME ( 7, 45, 1.000000000000000000, #289 ) ;
#258 = PRODUCT_DEFINITION_SHAPE ( 'NONE', 'NONE',  #195 ) ;
#259 = ORIENTED_EDGE ( 'NONE', *, *, #262, .F. ) ;
#260 = AXIS2_PLACEMENT_3D ( 'NONE', #113, #11, #157 ) ;
#261 = DIRECTION ( 'NONE',  ( -3.491481338843133355E-15, 1.224646799147353207E-16, -1.000000000000000000 ) ) ;
#262 = EDGE_CURVE ( 'NONE', #192, #192, #292, .T. ) ;
#263 = AXIS2_PLACEMENT_3D ( 'NONE', #16, #34, #269 ) ;
#264 = CARTESIAN_POINT ( 'NONE',  ( 0.0000000000000000000, 0.0000000000000000000, 0.0000000000000000000 ) ) ;
#265 = CARTESIAN_POINT ( 'NONE',  ( 2.886013015238223353E-14, -1.012277099146736572E-15, 8.265869798961819725 ) ) ;
#266 = APPROVAL ( #231, 'UNSPECIFIED' ) ;
#267 =( NAMED_UNIT ( * ) PLANE_ANGLE_UNIT ( ) SI_UNIT ( $, .RADIAN. ) );
#268 = AXIS2_PLACEMENT_3D ( 'NONE', #106, #131, #223 ) ;
#269 = DIRECTION ( 'NONE',  ( -4.275831445896958607E-31, -1.000000000000000000, -1.224646799147353207E-16 ) ) ;
#270 = EDGE_LOOP ( 'NONE', ( #62 ) ) ;
#271 = DIRECTION ( 'NONE',  ( 3.491481338843133355E-15, -1.224646799147353207E-16, 1.000000000000000000 ) ) ;
#272 = EDGE_LOOP ( 'NONE', ( #46 ) ) ;
#273 = ADVANCED_FACE ( 'NONE', ( #127, #170 ), #239, .T. ) ;
#274 = CALENDAR_DATE ( 2021, 30, 11 ) ;
#275 = CARTESIAN_POINT ( 'NONE',  ( 8.728703347107829444E-16, -3.061616997868381785E-17, 0.2499999999999998890 ) ) ;
#276 = EDGE_LOOP ( 'NONE', ( #221 ) ) ;
#277 = CC_DESIGN_SECURITY_CLASSIFICATION ( #216, ( #3 ) ) ;
#278 = EDGE_LOOP ( 'NONE', ( #285 ) ) ;
#279 = APPROVAL_DATE_TIME ( #282, #266 ) ;
#280 = APPROVAL ( #49, 'UNSPECIFIED' ) ;
#281 = EDGE_LOOP ( 'NONE', ( #37 ) ) ;
#282 = DATE_AND_TIME ( #274, #120 ) ;
#283 = AXIS2_PLACEMENT_3D ( 'NONE', #226, #293, #175 ) ;
#284 = ORIENTED_EDGE ( 'NONE', *, *, #70, .F. ) ;
#285 = ORIENTED_EDGE ( 'NONE', *, *, #146, .F. ) ;
#286 = AXIS2_PLACEMENT_3D ( 'NONE', #255, #43, #155 ) ;
#287 = VERTEX_POINT ( 'NONE', #52 ) ;
#288 = CARTESIAN_POINT ( 'NONE',  ( 8.728703347107835360E-16, 1.143499999999993966, 0.2500000000000000555 ) ) ;
#289 = COORDINATED_UNIVERSAL_TIME_OFFSET ( 1, 0, .AHEAD. ) ;
#290 = CONICAL_SURFACE ( 'NONE', #115, 1.200000000000001732, 0.7853981633974453924 ) ;
#291 = PLANE ( 'NONE',  #268 ) ;
#292 = CIRCLE ( 'NONE', #167, 1.143499999999993966 ) ;
#293 = DIRECTION ( 'NONE',  ( -3.491481338843133355E-15, 1.224646799147353207E-16, -1.000000000000000000 ) ) ;
#294 = DIRECTION ( 'NONE',  ( 0.0000000000000000000, 1.000000000000000000, 0.0000000000000000000 ) ) ;
#295 = PERSON_AND_ORGANIZATION_ROLE ( 'creator' ) ;
#296 = CARTESIAN_POINT ( 'NONE',  ( 2.793185071074506684E-14, 8.574876557369117968E-33, 8.000000000000000000 ) ) ;
#297 = FACE_OUTER_BOUND ( 'NONE', #232, .T. ) ;
#298 = FACE_OUTER_BOUND ( 'NONE', #229, .T. ) ;
#299 = ORIENTED_EDGE ( 'NONE', *, *, #73, .T. ) ;
#300 = CONICAL_SURFACE ( 'NONE', #44, 0.9899999999999988809, 0.5235987755982941527 ) ;
#301 = ADVANCED_FACE ( 'NONE', ( #71, #98 ), #300, .T. ) ;
#302 = COORDINATED_UNIVERSAL_TIME_OFFSET ( 1, 0, .AHEAD. ) ;
#303 = DIRECTION ( 'NONE',  ( -3.491481338843133355E-15, 1.224646799147353207E-16, -1.000000000000000000 ) ) ;
ENDSEC;
END-ISO-10303-21;
