ISO-10303-21;
HEADER;
FILE_DESCRIPTION (( 'STEP AP203' ),
    '1' );
FILE_NAME ('326982.step',
    '2021-11-30T06:45:00',
    ( '' ),
    ( '' ),
    'SwSTEP 2.0',
    'SolidWorks 2019',
    '' );
FILE_SCHEMA (( 'CONFIG_CONTROL_DESIGN' ));
ENDSEC;

DATA;
#1 = DATE_TIME_ROLE ( 'creation_date' ) ;
#2 = AXIS2_PLACEMENT_3D ( 'NONE', #183, #137, #229 ) ;
#3 = ORIENTED_EDGE ( 'NONE', *, *, #153, .T. ) ;
#4 = ADVANCED_FACE ( 'NONE', ( #255, #46 ), #28, .T. ) ;
#5 = ORIENTED_EDGE ( 'NONE', *, *, #49, .T. ) ;
#6 = ORIENTED_EDGE ( 'NONE', *, *, #78, .F. ) ;
#7 = APPROVAL_ROLE ( '' ) ;
#8 = CALENDAR_DATE ( 2021, 30, 11 ) ;
#9 = ADVANCED_FACE ( 'NONE', ( #244, #217 ), #80, .T. ) ;
#10 = CALENDAR_DATE ( 2021, 30, 11 ) ;
#11 = PLANE ( 'NONE',  #260 ) ;
#12 = CONICAL_SURFACE ( 'NONE', #140, 1.133499999999993957, 0.5235987755982932645 ) ;
#13 = DIRECTION ( 'NONE',  ( 0.0000000000000000000, 1.000000000000000000, 0.0000000000000000000 ) ) ;
#14 = APPROVAL_DATE_TIME ( #216, #215 ) ;
#15 = VERTEX_POINT ( 'NONE', #82 ) ;
#16 = DIRECTION ( 'NONE',  ( 3.491481338843133355E-15, -1.224646799147353207E-16, 1.000000000000000000 ) ) ;
#17 = PERSON_AND_ORGANIZATION_ROLE ( 'classification_officer' ) ;
#18 = DIRECTION ( 'NONE',  ( 0.0000000000000000000, 1.000000000000000000, 0.0000000000000000000 ) ) ;
#19 = FACE_OUTER_BOUND ( 'NONE', #50, .T. ) ;
#20 = AXIS2_PLACEMENT_3D ( 'NONE', #132, #224, #13 ) ;
#21 = DIRECTION ( 'NONE',  ( -3.491481338843133355E-15, 1.224646799147353207E-16, -1.000000000000000000 ) ) ;
#22 = DIRECTION ( 'NONE',  ( 3.491481338843133355E-15, -1.224646799147353207E-16, 1.000000000000000000 ) ) ;
#23 = DIRECTION ( 'NONE',  ( -3.491481338843133355E-15, 1.224646799147353207E-16, -1.000000000000000000 ) ) ;
#24 = EDGE_LOOP ( 'NONE', ( #166 ) ) ;
#25 = CALENDAR_DATE ( 2021, 30, 11 ) ;
#26 = EDGE_LOOP ( 'NONE', ( #238 ) ) ;
#27 = AXIS2_PLACEMENT_3D ( 'NONE', #61, #247, #38 ) ;
#28 = CONICAL_SURFACE ( 'NONE', #149, 0.9799999999999988720, 0.5235987755982941527 ) ;
#29 = ADVANCED_FACE ( 'NONE', ( #274, #19 ), #135, .T. ) ;
#30 = APPROVAL_ROLE ( '' ) ;
#31 = MANIFOLD_SOLID_BREP ( 'Corps-Déplacer/Copier1[2]', #79 ) ;
#32 = APPROVAL_DATE_TIME ( #127, #299 ) ;
#33 = EDGE_CURVE ( 'NONE', #103, #103, #57, .T. ) ;
#34 = DIRECTION ( 'NONE',  ( 0.0000000000000000000, 1.000000000000000000, 0.0000000000000000000 ) ) ;
#35 =( LENGTH_UNIT ( ) NAMED_UNIT ( * ) SI_UNIT ( .MILLI., .METRE. ) );
#36 = DIRECTION ( 'NONE',  ( 0.0000000000000000000, 1.000000000000000000, 0.0000000000000000000 ) ) ;
#37 = MANIFOLD_SOLID_BREP ( 'Corps-Déplacer/Copier1[1]', #125 ) ;
#38 = DIRECTION ( 'NONE',  ( 0.0000000000000000000, 1.000000000000000000, 0.0000000000000000000 ) ) ;
#39 = DIRECTION ( 'NONE',  ( -3.491481338843133355E-15, 1.224646799147353207E-16, -1.000000000000000000 ) ) ;
#40 = DIRECTION ( 'NONE',  ( 4.275831445896958607E-31, 1.000000000000000000, 1.224646799147353207E-16 ) ) ;
#41 = DIRECTION ( 'NONE',  ( -3.491481338843133355E-15, 1.224646799147353207E-16, -1.000000000000000000 ) ) ;
#42 = PERSON_AND_ORGANIZATION ( #169, #77 ) ;
#43 = AXIS2_PLACEMENT_3D ( 'NONE', #252, #21, #180 ) ;
#44 = ADVANCED_FACE ( 'NONE', ( #112 ), #279, .F. ) ;
#45 = CC_DESIGN_APPROVAL ( #299, ( #178 ) ) ;
#46 = FACE_BOUND ( 'NONE', #76, .T. ) ;
#47 = ORIENTED_EDGE ( 'NONE', *, *, #99, .T. ) ;
#48 = VERTEX_POINT ( 'NONE', #186 ) ;
#49 = EDGE_CURVE ( 'NONE', #53, #53, #262, .T. ) ;
#50 = EDGE_LOOP ( 'NONE', ( #47 ) ) ;
#51 = AXIS2_PLACEMENT_3D ( 'NONE', #63, #222, #264 ) ;
#52 = CC_DESIGN_DATE_AND_TIME_ASSIGNMENT ( #109, #130, ( #211 ) ) ;
#53 = VERTEX_POINT ( 'NONE', #114 ) ;
#54 = PRODUCT ( '326982', '326982', '', ( #278 ) ) ;
#55 = EDGE_CURVE ( 'NONE', #139, #139, #172, .T. ) ;
#56 = APPROVAL_PERSON_ORGANIZATION ( #85, #191, #30 ) ;
#57 = CIRCLE ( 'NONE', #2, 0.9799999999999988720 ) ;
#58 = APPROVAL_ROLE ( '' ) ;
#59 = PERSON_AND_ORGANIZATION ( #169, #77 ) ;
#60 = ADVANCED_FACE ( 'NONE', ( #277, #129 ), #292, .T. ) ;
#61 = CARTESIAN_POINT ( 'NONE',  ( 6.405924284287275164E-14, -2.246895775456749140E-15, 18.34729635533384595 ) ) ;
#62 = CARTESIAN_POINT ( 'NONE',  ( 1.745740669421566678E-13, -6.123233995736766085E-15, 50.00000000000000000 ) ) ;
#63 = CARTESIAN_POINT ( 'NONE',  ( 8.728703347107829444E-16, -3.061616997868381785E-17, 0.2499999999999998890 ) ) ;
#64 = CC_DESIGN_PERSON_AND_ORGANIZATION_ASSIGNMENT ( #84, #268, ( #54 ) ) ;
#65 = DIRECTION ( 'NONE',  ( -3.491481338843133355E-15, 1.224646799147353207E-16, -1.000000000000000000 ) ) ;
#66 = AXIS2_PLACEMENT_3D ( 'NONE', #126, #65, #160 ) ;
#67 = DIRECTION ( 'NONE',  ( -3.491481338843133355E-15, 1.224646799147353207E-16, -1.000000000000000000 ) ) ;
#68 = PLANE ( 'NONE',  #71 ) ;
#69 = CARTESIAN_POINT ( 'NONE',  ( 1.735266225405037467E-13, 1.499999999999995559, 49.70000000000000284 ) ) ;
#70 = EDGE_LOOP ( 'NONE', ( #168 ) ) ;
#71 = AXIS2_PLACEMENT_3D ( 'NONE', #233, #22, #296 ) ;
#72 = FACE_OUTER_BOUND ( 'NONE', #97, .T. ) ;
#73 = ADVANCED_FACE ( 'NONE', ( #226 ), #250, .T. ) ;
#74 = APPLICATION_CONTEXT ( 'configuration controlled 3d designs of mechanical parts and assemblies' ) ;
#75 = ORIENTED_EDGE ( 'NONE', *, *, #171, .T. ) ;
#76 = EDGE_LOOP ( 'NONE', ( #236 ) ) ;
#77 = ORGANIZATION ( 'UNSPECIFIED', 'UNSPECIFIED', '' ) ;
#78 = EDGE_CURVE ( 'NONE', #142, #142, #240, .T. ) ;
#79 = CLOSED_SHELL ( 'NONE', ( #122, #253, #9, #73 ) ) ;
#80 = CYLINDRICAL_SURFACE ( 'NONE', #188, 1.133499999999994401 ) ;
#81 = DIRECTION ( 'NONE',  ( -3.491481338843133355E-15, 1.224646799147353207E-16, -1.000000000000000000 ) ) ;
#82 = CARTESIAN_POINT ( 'NONE',  ( 7.375420498436698088E-14, 1.499999999999994005, 21.12404387325314659 ) ) ;
#83 = AXIS2_PLACEMENT_3D ( 'NONE', #246, #185, #115 ) ;
#84 = PERSON_AND_ORGANIZATION ( #169, #77 ) ;
#85 = PERSON_AND_ORGANIZATION ( #169, #77 ) ;
#86 = DIRECTION ( 'NONE',  ( -3.491481338843133355E-15, 1.224646799147353207E-16, -1.000000000000000000 ) ) ;
#87 = DESIGN_CONTEXT ( 'detailed design', #74, 'design' ) ;
#88 = CARTESIAN_POINT ( 'NONE',  ( 0.0000000000000000000, 0.0000000000000000000, 0.0000000000000000000 ) ) ;
#89 = DIRECTION ( 'NONE',  ( 4.275831445896958607E-31, 1.000000000000000000, 1.224646799147353207E-16 ) ) ;
#90 = SHAPE_DEFINITION_REPRESENTATION ( #266, #242 ) ;
#91 = PRODUCT_DEFINITION ( 'UNKNOWN', '', #178, #87 ) ;
#92 = CARTESIAN_POINT ( 'NONE',  ( 6.284666409917640040E-14, 0.9799999999999977618, 18.00000000000000000 ) ) ;
#93 = DIRECTION ( 'NONE',  ( -5.097300249811855553E-31, -1.000000000000000000, -1.434762469103013053E-16 ) ) ;
#94 = VERTEX_POINT ( 'NONE', #165 ) ;
#95 = CARTESIAN_POINT ( 'NONE',  ( 8.728703347107835360E-16, 1.133499999999993957, 0.2500000000000000555 ) ) ;
#96 = AXIS2_PLACEMENT_3D ( 'NONE', #198, #86, #40 ) ;
#97 = EDGE_LOOP ( 'NONE', ( #205 ) ) ;
#98 = ORIENTED_EDGE ( 'NONE', *, *, #146, .T. ) ;
#99 = EDGE_CURVE ( 'NONE', #285, #285, #219, .T. ) ;
#100 = AXIS2_PLACEMENT_3D ( 'NONE', #88, #275, #158 ) ;
#101 = CC_DESIGN_PERSON_AND_ORGANIZATION_ASSIGNMENT ( #203, #17, ( #211 ) ) ;
#102 = CC_DESIGN_PERSON_AND_ORGANIZATION_ASSIGNMENT ( #42, #276, ( #91 ) ) ;
#103 = VERTEX_POINT ( 'NONE', #174 ) ;
#104 = APPROVAL_DATE_TIME ( #124, #191 ) ;
#105 =( NAMED_UNIT ( * ) PLANE_ANGLE_UNIT ( ) SI_UNIT ( $, .RADIAN. ) );
#106 = CARTESIAN_POINT ( 'NONE',  ( 2.793185071074506684E-14, 8.499888568236024541E-33, 8.000000000000000000 ) ) ;
#107 = LOCAL_TIME ( 7, 45, 0.0000000000000000000, #220 ) ;
#108 = DIRECTION ( 'NONE',  ( -4.275831445896958607E-31, -1.000000000000000000, -1.224646799147353207E-16 ) ) ;
#109 = DATE_AND_TIME ( #200, #302 ) ;
#110 = ADVANCED_FACE ( 'NONE', ( #136, #156 ), #289, .F. ) ;
#111 = FACE_OUTER_BOUND ( 'NONE', #212, .T. ) ;
#112 = FACE_OUTER_BOUND ( 'NONE', #194, .T. ) ;
#113 = CIRCLE ( 'NONE', #20, 1.133499999999995067 ) ;
#114 = CARTESIAN_POINT ( 'NONE',  ( 1.745740669421566678E-13, 1.199999999999995515, 50.00000000000000000 ) ) ;
#115 = DIRECTION ( 'NONE',  ( 0.0000000000000000000, -1.000000000000000000, 0.0000000000000000000 ) ) ;
#116 = DIRECTION ( 'NONE',  ( 0.0000000000000000000, 1.000000000000000000, 0.0000000000000000000 ) ) ;
#117 = DIRECTION ( 'NONE',  ( 4.275831445896958607E-31, 1.000000000000000000, 1.224646799147352961E-16 ) ) ;
#118 = EDGE_CURVE ( 'NONE', #94, #94, #214, .T. ) ;
#119 = EDGE_LOOP ( 'NONE', ( #5 ) ) ;
#120 = EDGE_LOOP ( 'NONE', ( #257 ) ) ;
#121 = LOCAL_TIME ( 7, 45, 0.0000000000000000000, #151 ) ;
#122 = ADVANCED_FACE ( 'NONE', ( #111 ), #11, .F. ) ;
#123 = APPROVAL_PERSON_ORGANIZATION ( #213, #299, #7 ) ;
#124 = DATE_AND_TIME ( #10, #107 ) ;
#125 = CLOSED_SHELL ( 'NONE', ( #163, #4, #60, #110, #287, #29, #128, #44 ) ) ;
#126 = CARTESIAN_POINT ( 'NONE',  ( 0.0000000000000000000, 0.0000000000000000000, 0.0000000000000000000 ) ) ;
#127 = DATE_AND_TIME ( #8, #121 ) ;
#128 = ADVANCED_FACE ( 'NONE', ( #291, #269 ), #265, .T. ) ;
#129 = FACE_OUTER_BOUND ( 'NONE', #120, .T. ) ;
#130 = DATE_TIME_ROLE ( 'classification_date' ) ;
#131 =( NAMED_UNIT ( * ) SI_UNIT ( $, .STERADIAN. ) SOLID_ANGLE_UNIT ( ) );
#132 = CARTESIAN_POINT ( 'NONE',  ( 2.793185071074506684E-14, -9.797174393178825657E-16, 8.000000000000000000 ) ) ;
#133 = AXIS2_PLACEMENT_3D ( 'NONE', #154, #67, #273 ) ;
#134 = CARTESIAN_POINT ( 'NONE',  ( 6.284666409917640040E-14, -2.204364238465235428E-15, 18.00000000000000000 ) ) ;
#135 = CYLINDRICAL_SURFACE ( 'NONE', #225, 1.499999999999999112 ) ;
#136 = FACE_OUTER_BOUND ( 'NONE', #208, .T. ) ;
#137 = DIRECTION ( 'NONE',  ( -3.491481338843133355E-15, 1.224646799147353207E-16, -1.000000000000000000 ) ) ;
#138 = PRODUCT_RELATED_PRODUCT_CATEGORY ( 'detail', '', ( #54 ) ) ;
#139 = VERTEX_POINT ( 'NONE', #92 ) ;
#140 = AXIS2_PLACEMENT_3D ( 'NONE', #204, #283, #93 ) ;
#141 = CARTESIAN_POINT ( 'NONE',  ( 2.886013015238223353E-14, -1.012277099146736572E-15, 8.265869798961819725 ) ) ;
#142 = VERTEX_POINT ( 'NONE', #95 ) ;
#143 = EDGE_LOOP ( 'NONE', ( #6 ) ) ;
#144 = EDGE_LOOP ( 'NONE', ( #239 ) ) ;
#145 = ORIENTED_EDGE ( 'NONE', *, *, #55, .F. ) ;
#146 = EDGE_CURVE ( 'NONE', #48, #48, #176, .T. ) ;
#147 = EDGE_LOOP ( 'NONE', ( #280 ) ) ;
#148 = AXIS2_PLACEMENT_3D ( 'NONE', #228, #221, #18 ) ;
#149 = AXIS2_PLACEMENT_3D ( 'NONE', #141, #23, #116 ) ;
#150 = APPLICATION_CONTEXT ( 'configuration controlled 3d designs of mechanical parts and assemblies' ) ;
#151 = COORDINATED_UNIVERSAL_TIME_OFFSET ( 1, 0, .AHEAD. ) ;
#152 = CIRCLE ( 'NONE', #27, 1.010384493975581055 ) ;
#153 = EDGE_CURVE ( 'NONE', #297, #297, #152, .T. ) ;
#154 = CARTESIAN_POINT ( 'NONE',  ( 1.745740669421566678E-13, -6.123233995736766085E-15, 50.00000000000000000 ) ) ;
#155 = FACE_BOUND ( 'NONE', #144, .T. ) ;
#156 = FACE_OUTER_BOUND ( 'NONE', #190, .T. ) ;
#157 = EDGE_CURVE ( 'NONE', #159, #159, #113, .T. ) ;
#158 = DIRECTION ( 'NONE',  ( 1.000000000000000000, 0.0000000000000000000, 0.0000000000000000000 ) ) ;
#159 = VERTEX_POINT ( 'NONE', #271 ) ;
#160 = DIRECTION ( 'NONE',  ( 4.275831445896958607E-31, 1.000000000000000000, 1.224646799147353207E-16 ) ) ;
#161 = AXIS2_PLACEMENT_3D ( 'NONE', #62, #81, #36 ) ;
#162 = EDGE_LOOP ( 'NONE', ( #75 ) ) ;
#163 = ADVANCED_FACE ( 'NONE', ( #201 ), #68, .F. ) ;
#164 = ORIENTED_EDGE ( 'NONE', *, *, #171, .F. ) ;
#165 = CARTESIAN_POINT ( 'NONE',  ( 2.793185071074506684E-14, 1.133499999999993957, 8.000000000000000000 ) ) ;
#166 = ORIENTED_EDGE ( 'NONE', *, *, #157, .F. ) ;
#167 = CC_DESIGN_APPROVAL ( #215, ( #91 ) ) ;
#168 = ORIENTED_EDGE ( 'NONE', *, *, #99, .F. ) ;
#169 = PERSON ( 'UNSPECIFIED', 'UNSPECIFIED', 'UNSPECIFIED', ('UNSPECIFIED'), ('UNSPECIFIED'), ('UNSPECIFIED') ) ;
#170 = APPROVAL_STATUS ( 'not_yet_approved' ) ;
#171 = EDGE_CURVE ( 'NONE', #15, #15, #195, .T. ) ;
#172 = CIRCLE ( 'NONE', #184, 0.9799999999999999822 ) ;
#173 = PERSON_AND_ORGANIZATION ( #169, #77 ) ;
#174 = CARTESIAN_POINT ( 'NONE',  ( 2.886013015238223353E-14, 0.9799999999999977618, 8.265869798961819725 ) ) ;
#175 = CARTESIAN_POINT ( 'NONE',  ( -6.122227661232827125E-31, 2.147388395168799468E-32, -1.753475693288787525E-16 ) ) ;
#176 = CIRCLE ( 'NONE', #267, 0.9891624327025893004 ) ;
#177 = DIRECTION ( 'NONE',  ( 3.491481338843133355E-15, -1.224646799147353207E-16, 1.000000000000000000 ) ) ;
#178 = PRODUCT_DEFINITION_FORMATION_WITH_SPECIFIED_SOURCE ( 'ANY', '', #54, .NOT_KNOWN. ) ;
#179 = DIRECTION ( 'NONE',  ( -3.491481338843133355E-15, 1.224646799147353207E-16, -1.000000000000000000 ) ) ;
#180 = DIRECTION ( 'NONE',  ( 0.0000000000000000000, 1.000000000000000000, 0.0000000000000000000 ) ) ;
#181 = DIRECTION ( 'NONE',  ( 0.0000000000000000000, 1.000000000000000000, 0.0000000000000000000 ) ) ;
#182 = DIRECTION ( 'NONE',  ( -3.491481338843133355E-15, 1.224646799147353207E-16, -1.000000000000000000 ) ) ;
#183 = CARTESIAN_POINT ( 'NONE',  ( 2.886013015238223353E-14, -1.012277099146736572E-15, 8.265869798961819725 ) ) ;
#184 = AXIS2_PLACEMENT_3D ( 'NONE', #134, #182, #181 ) ;
#185 = DIRECTION ( 'NONE',  ( 3.491481338843133355E-15, -1.224646799147353207E-16, 1.000000000000000000 ) ) ;
#186 = CARTESIAN_POINT ( 'NONE',  ( -1.892735826383161356E-31, 0.9891624327025893004, -5.421010862427522170E-17 ) ) ;
#187 = CC_DESIGN_APPROVAL ( #191, ( #211 ) ) ;
#188 = AXIS2_PLACEMENT_3D ( 'NONE', #243, #207, #117 ) ;
#189 = CC_DESIGN_PERSON_AND_ORGANIZATION_ASSIGNMENT ( #173, #218, ( #178 ) ) ;
#190 = EDGE_LOOP ( 'NONE', ( #3 ) ) ;
#191 = APPROVAL ( #293, 'UNSPECIFIED' ) ;
#192 = COORDINATED_UNIVERSAL_TIME_OFFSET ( 1, 0, .AHEAD. ) ;
#193 = CC_DESIGN_SECURITY_CLASSIFICATION ( #211, ( #178 ) ) ;
#194 = EDGE_LOOP ( 'NONE', ( #261 ) ) ;
#195 = CIRCLE ( 'NONE', #43, 1.499999999999996669 ) ;
#196 = AXIS2_PLACEMENT_3D ( 'NONE', #106, #16, #108 ) ;
#197 = CARTESIAN_POINT ( 'NONE',  ( 6.405924284287275164E-14, 1.010384493975578835, 18.34729635533384595 ) ) ;
#198 = CARTESIAN_POINT ( 'NONE',  ( 1.745740669421566678E-13, 8.998558695971067645E-33, 50.00000000000000000 ) ) ;
#199 = DIRECTION ( 'NONE',  ( -3.491481338843133355E-15, 1.224646799147353207E-16, -1.000000000000000000 ) ) ;
#200 = CALENDAR_DATE ( 2021, 30, 11 ) ;
#201 = FACE_OUTER_BOUND ( 'NONE', #26, .T. ) ;
#202 = CARTESIAN_POINT ( 'NONE',  ( 6.284666409917640040E-14, -2.168404344971008868E-15, 18.00000000000000000 ) ) ;
#203 = PERSON_AND_ORGANIZATION ( #169, #77 ) ;
#204 = CARTESIAN_POINT ( 'NONE',  ( 8.728703347107829444E-16, -3.061616997868381785E-17, 0.2499999999999998890 ) ) ;
#205 = ORIENTED_EDGE ( 'NONE', *, *, #78, .T. ) ;
#206 = PERSON_AND_ORGANIZATION_ROLE ( 'design_supplier' ) ;
#207 = DIRECTION ( 'NONE',  ( -3.491481338843133355E-15, 1.224646799147353207E-16, -1.000000000000000000 ) ) ;
#208 = EDGE_LOOP ( 'NONE', ( #145 ) ) ;
#209 = EDGE_LOOP ( 'NONE', ( #259 ) ) ;
#210 = APPROVAL_STATUS ( 'not_yet_approved' ) ;
#211 = SECURITY_CLASSIFICATION ( '', '', #300 ) ;
#212 = EDGE_LOOP ( 'NONE', ( #98 ) ) ;
#213 = PERSON_AND_ORGANIZATION ( #169, #77 ) ;
#214 = CIRCLE ( 'NONE', #148, 1.133499999999995067 ) ;
#215 = APPROVAL ( #210, 'UNSPECIFIED' ) ;
#216 = DATE_AND_TIME ( #290, #223 ) ;
#217 = FACE_OUTER_BOUND ( 'NONE', #286, .T. ) ;
#218 = PERSON_AND_ORGANIZATION_ROLE ( 'creator' ) ;
#219 = CIRCLE ( 'NONE', #245, 1.500000000000001554 ) ;
#220 = COORDINATED_UNIVERSAL_TIME_OFFSET ( 1, 0, .AHEAD. ) ;
#221 = DIRECTION ( 'NONE',  ( -3.491481338843133355E-15, 1.224646799147353207E-16, -1.000000000000000000 ) ) ;
#222 = DIRECTION ( 'NONE',  ( -3.491481338843133355E-15, 1.224646799147353207E-16, -1.000000000000000000 ) ) ;
#223 = LOCAL_TIME ( 7, 45, 0.0000000000000000000, #192 ) ;
#224 = DIRECTION ( 'NONE',  ( -3.491481338843133355E-15, 1.224646799147353207E-16, -1.000000000000000000 ) ) ;
#225 = AXIS2_PLACEMENT_3D ( 'NONE', #251, #39, #301 ) ;
#226 = FACE_OUTER_BOUND ( 'NONE', #24, .T. ) ;
#227 = FACE_OUTER_BOUND ( 'NONE', #162, .T. ) ;
#228 = CARTESIAN_POINT ( 'NONE',  ( 2.793185071074506684E-14, -9.797174393178825657E-16, 8.000000000000000000 ) ) ;
#229 = DIRECTION ( 'NONE',  ( 0.0000000000000000000, 1.000000000000000000, 0.0000000000000000000 ) ) ;
#230 = COORDINATED_UNIVERSAL_TIME_OFFSET ( 1, 0, .AHEAD. ) ;
#231 = CC_DESIGN_DATE_AND_TIME_ASSIGNMENT ( #258, #1, ( #91 ) ) ;
#232 = LOCAL_TIME ( 7, 45, 0.0000000000000000000, #230 ) ;
#233 = CARTESIAN_POINT ( 'NONE',  ( 2.793185071074506684E-14, 8.499888568236024541E-33, 8.000000000000000000 ) ) ;
#234 = CONICAL_SURFACE ( 'NONE', #83, 1.499999999999996669, 0.1745329251994263420 ) ;
#235 = APPLICATION_PROTOCOL_DEFINITION ( 'international standard', 'config_control_design', 1994, #150 ) ;
#236 = ORIENTED_EDGE ( 'NONE', *, *, #33, .T. ) ;
#237 = PERSON_AND_ORGANIZATION ( #169, #77 ) ;
#238 = ORIENTED_EDGE ( 'NONE', *, *, #118, .T. ) ;
#239 = ORIENTED_EDGE ( 'NONE', *, *, #153, .F. ) ;
#240 = CIRCLE ( 'NONE', #51, 1.133499999999993957 ) ;
#241 = EDGE_LOOP ( 'NONE', ( #284 ) ) ;
#242 = ADVANCED_BREP_SHAPE_REPRESENTATION ( '326982', ( #37, #31, #100 ), #294 ) ;
#243 = CARTESIAN_POINT ( 'NONE',  ( 0.0000000000000000000, 0.0000000000000000000, 0.0000000000000000000 ) ) ;
#244 = FACE_OUTER_BOUND ( 'NONE', #143, .T. ) ;
#245 = AXIS2_PLACEMENT_3D ( 'NONE', #298, #41, #34 ) ;
#246 = CARTESIAN_POINT ( 'NONE',  ( 7.375420498436698088E-14, -2.586949271442772256E-15, 21.12404387325314659 ) ) ;
#247 = DIRECTION ( 'NONE',  ( -3.491481338843133355E-15, 1.224646799147353207E-16, -1.000000000000000000 ) ) ;
#248 = DIRECTION ( 'NONE',  ( -4.275831445896958607E-31, -1.000000000000000000, -1.224646799147353207E-16 ) ) ;
#249 = COORDINATED_UNIVERSAL_TIME_OFFSET ( 1, 0, .AHEAD. ) ;
#250 = PLANE ( 'NONE',  #196 ) ;
#251 = CARTESIAN_POINT ( 'NONE',  ( 0.0000000000000000000, 0.0000000000000000000, 0.0000000000000000000 ) ) ;
#252 = CARTESIAN_POINT ( 'NONE',  ( 7.375420498436698088E-14, -2.586949271442772256E-15, 21.12404387325314659 ) ) ;
#253 = ADVANCED_FACE ( 'NONE', ( #282, #72 ), #12, .T. ) ;
#254 = APPROVAL_PERSON_ORGANIZATION ( #59, #215, #58 ) ;
#255 = FACE_OUTER_BOUND ( 'NONE', #147, .T. ) ;
#256 = ORIENTED_EDGE ( 'NONE', *, *, #157, .T. ) ;
#257 = ORIENTED_EDGE ( 'NONE', *, *, #55, .T. ) ;
#258 = DATE_AND_TIME ( #25, #232 ) ;
#259 = ORIENTED_EDGE ( 'NONE', *, *, #146, .F. ) ;
#260 = AXIS2_PLACEMENT_3D ( 'NONE', #295, #177, #248 ) ;
#261 = ORIENTED_EDGE ( 'NONE', *, *, #49, .F. ) ;
#262 = CIRCLE ( 'NONE', #133, 1.200000000000001732 ) ;
#263 = APPLICATION_PROTOCOL_DEFINITION ( 'international standard', 'config_control_design', 1994, #74 ) ;
#264 = DIRECTION ( 'NONE',  ( 5.097300249811855553E-31, 1.000000000000000000, 1.434762469103013053E-16 ) ) ;
#265 = CONICAL_SURFACE ( 'NONE', #161, 1.200000000000001732, 0.7853981633974453924 ) ;
#266 = PRODUCT_DEFINITION_SHAPE ( 'NONE', 'NONE',  #91 ) ;
#267 = AXIS2_PLACEMENT_3D ( 'NONE', #175, #179, #272 ) ;
#268 = PERSON_AND_ORGANIZATION_ROLE ( 'design_owner' ) ;
#269 = FACE_BOUND ( 'NONE', #119, .T. ) ;
#270 = UNCERTAINTY_MEASURE_WITH_UNIT (LENGTH_MEASURE( 1.000000000000000082E-05 ), #35, 'distance_accuracy_value', 'NONE');
#271 = CARTESIAN_POINT ( 'NONE',  ( 2.793185071074506684E-14, 1.133499999999993957, 8.000000000000000000 ) ) ;
#272 = DIRECTION ( 'NONE',  ( 4.275831445896959482E-31, 1.000000000000000000, 1.224646799147353454E-16 ) ) ;
#273 = DIRECTION ( 'NONE',  ( 0.0000000000000000000, 1.000000000000000000, 0.0000000000000000000 ) ) ;
#274 = FACE_OUTER_BOUND ( 'NONE', #288, .T. ) ;
#275 = DIRECTION ( 'NONE',  ( 0.0000000000000000000, 0.0000000000000000000, 1.000000000000000000 ) ) ;
#276 = PERSON_AND_ORGANIZATION_ROLE ( 'creator' ) ;
#277 = FACE_OUTER_BOUND ( 'NONE', #241, .T. ) ;
#278 = MECHANICAL_CONTEXT ( 'NONE', #150, 'mechanical' ) ;
#279 = PLANE ( 'NONE',  #96 ) ;
#280 = ORIENTED_EDGE ( 'NONE', *, *, #118, .F. ) ;
#281 = AXIS2_PLACEMENT_3D ( 'NONE', #202, #199, #89 ) ;
#282 = FACE_BOUND ( 'NONE', #209, .T. ) ;
#283 = DIRECTION ( 'NONE',  ( 3.491481338843133355E-15, -1.224646799147353207E-16, 1.000000000000000000 ) ) ;
#284 = ORIENTED_EDGE ( 'NONE', *, *, #33, .F. ) ;
#285 = VERTEX_POINT ( 'NONE', #69 ) ;
#286 = EDGE_LOOP ( 'NONE', ( #256 ) ) ;
#287 = ADVANCED_FACE ( 'NONE', ( #155, #227 ), #234, .T. ) ;
#288 = EDGE_LOOP ( 'NONE', ( #164 ) ) ;
#289 = TOROIDAL_SURFACE ( 'NONE', #281, 2.979999999999999982, 2.000000000000000000 ) ;
#290 = CALENDAR_DATE ( 2021, 30, 11 ) ;
#291 = FACE_OUTER_BOUND ( 'NONE', #70, .T. ) ;
#292 = CYLINDRICAL_SURFACE ( 'NONE', #66, 0.9799999999999995381 ) ;
#293 = APPROVAL_STATUS ( 'not_yet_approved' ) ;
#294 =( GEOMETRIC_REPRESENTATION_CONTEXT ( 3 ) GLOBAL_UNCERTAINTY_ASSIGNED_CONTEXT ( ( #270 ) ) GLOBAL_UNIT_ASSIGNED_CONTEXT ( ( #35, #105, #131 ) ) REPRESENTATION_CONTEXT ( 'NONE', 'WORKASPACE' ) );
#295 = CARTESIAN_POINT ( 'NONE',  ( -3.061113830616413562E-31, 1.073694197584399734E-32, -8.767378466443937626E-17 ) ) ;
#296 = DIRECTION ( 'NONE',  ( -4.275831445896958607E-31, -1.000000000000000000, -1.224646799147353207E-16 ) ) ;
#297 = VERTEX_POINT ( 'NONE', #197 ) ;
#298 = CARTESIAN_POINT ( 'NONE',  ( 1.735266225405037467E-13, -6.086494591762345225E-15, 49.70000000000000284 ) ) ;
#299 = APPROVAL ( #170, 'UNSPECIFIED' ) ;
#300 = SECURITY_CLASSIFICATION_LEVEL ( 'unclassified' ) ;
#301 = DIRECTION ( 'NONE',  ( 4.275831445896958607E-31, 1.000000000000000000, 1.224646799147353454E-16 ) ) ;
#302 = LOCAL_TIME ( 7, 45, 0.0000000000000000000, #249 ) ;
#303 = CC_DESIGN_PERSON_AND_ORGANIZATION_ASSIGNMENT ( #237, #206, ( #178 ) ) ;
ENDSEC;
END-ISO-10303-21;
