ISO-10303-21;
HEADER;
FILE_DESCRIPTION (( 'STEP AP203' ),
    '1' );
FILE_NAME ('326981.step',
    '2021-11-30T06:45:00',
    ( '' ),
    ( '' ),
    'SwSTEP 2.0',
    'SolidWorks 2019',
    '' );
FILE_SCHEMA (( 'CONFIG_CONTROL_DESIGN' ));
ENDSEC;

DATA;
#1 = FACE_OUTER_BOUND ( 'NONE', #12, .T. ) ;
#2 = APPROVAL ( #82, 'UNSPECIFIED' ) ;
#3 = DIRECTION ( 'NONE',  ( -3.491481338843133355E-15, 1.224646799147353207E-16, -1.000000000000000000 ) ) ;
#4 = LOCAL_TIME ( 7, 45, 0.0000000000000000000, #81 ) ;
#5 = PERSON_AND_ORGANIZATION_ROLE ( 'design_supplier' ) ;
#6 = FACE_BOUND ( 'NONE', #20, .T. ) ;
#7 = DATE_AND_TIME ( #216, #4 ) ;
#8 = EDGE_CURVE ( 'NONE', #100, #100, #290, .T. ) ;
#9 =( NAMED_UNIT ( * ) SI_UNIT ( $, .STERADIAN. ) SOLID_ANGLE_UNIT ( ) );
#10 = TOROIDAL_SURFACE ( 'NONE', #36, 2.970000000000000195, 2.000000000000000444 ) ;
#11 = PERSON_AND_ORGANIZATION ( #129, #151 ) ;
#12 = EDGE_LOOP ( 'NONE', ( #22 ) ) ;
#13 = EDGE_LOOP ( 'NONE', ( #182 ) ) ;
#14 = AXIS2_PLACEMENT_3D ( 'NONE', #69, #88, #23 ) ;
#15 = AXIS2_PLACEMENT_3D ( 'NONE', #122, #196, #200 ) ;
#16 = CARTESIAN_POINT ( 'NONE',  ( 1.745740669421566678E-13, 8.998558695971067645E-33, 50.00000000000000000 ) ) ;
#17 = MANIFOLD_SOLID_BREP ( 'Corps-Déplacer/Copier1[2]', #118 ) ;
#18 = ORIENTED_EDGE ( 'NONE', *, *, #74, .F. ) ;
#19 = ORIENTED_EDGE ( 'NONE', *, *, #269, .T. ) ;
#20 = EDGE_LOOP ( 'NONE', ( #263 ) ) ;
#21 = CARTESIAN_POINT ( 'NONE',  ( 7.395221673077216217E-14, -2.593894588570230622E-15, 21.18075669144932860 ) ) ;
#22 = ORIENTED_EDGE ( 'NONE', *, *, #116, .F. ) ;
#23 = DIRECTION ( 'NONE',  ( 0.0000000000000000000, 1.000000000000000000, 0.0000000000000000000 ) ) ;
#24 = CC_DESIGN_APPROVAL ( #37, ( #203 ) ) ;
#25 = CARTESIAN_POINT ( 'NONE',  ( 2.793185071074506684E-14, 1.123499999999998833, 8.000000000000000000 ) ) ;
#26 = CARTESIAN_POINT ( 'NONE',  ( 1.735266225405037467E-13, -6.086494591762345225E-15, 49.70000000000000284 ) ) ;
#27 = CARTESIAN_POINT ( 'NONE',  ( 6.284666409917640040E-14, -2.204364238465235428E-15, 18.00000000000000000 ) ) ;
#28 = APPLICATION_PROTOCOL_DEFINITION ( 'international standard', 'config_control_design', 1994, #283 ) ;
#29 = CIRCLE ( 'NONE', #220, 1.200000000000001732 ) ;
#30 = LOCAL_TIME ( 7, 45, 0.0000000000000000000, #58 ) ;
#31 = CARTESIAN_POINT ( 'NONE',  ( 0.0000000000000000000, 0.0000000000000000000, 0.0000000000000000000 ) ) ;
#32 = EDGE_CURVE ( 'NONE', #278, #278, #293, .T. ) ;
#33 = FACE_OUTER_BOUND ( 'NONE', #132, .T. ) ;
#34 = PERSON_AND_ORGANIZATION ( #129, #151 ) ;
#35 = AXIS2_PLACEMENT_3D ( 'NONE', #73, #172, #231 ) ;
#36 = AXIS2_PLACEMENT_3D ( 'NONE', #40, #136, #72 ) ;
#37 = APPROVAL ( #125, 'UNSPECIFIED' ) ;
#38 = DIRECTION ( 'NONE',  ( -3.491481338843133355E-15, 1.224646799147353207E-16, -1.000000000000000000 ) ) ;
#39 = ORIENTED_EDGE ( 'NONE', *, *, #116, .T. ) ;
#40 = CARTESIAN_POINT ( 'NONE',  ( 6.284666409917640040E-14, -2.168404344971008868E-15, 18.00000000000000000 ) ) ;
#41 = ORIENTED_EDGE ( 'NONE', *, *, #8, .T. ) ;
#42 = DIRECTION ( 'NONE',  ( 0.0000000000000000000, 1.000000000000000000, 0.0000000000000000000 ) ) ;
#43 = ORIENTED_EDGE ( 'NONE', *, *, #273, .T. ) ;
#44 = DIRECTION ( 'NONE',  ( 3.428446718980396527E-31, 1.000000000000000000, 1.447532940568098318E-16 ) ) ;
#45 = EDGE_LOOP ( 'NONE', ( #246 ) ) ;
#46 = FACE_OUTER_BOUND ( 'NONE', #45, .T. ) ;
#47 = DIRECTION ( 'NONE',  ( 4.275831445896958607E-31, 1.000000000000000000, 1.224646799147353207E-16 ) ) ;
#48 = CIRCLE ( 'NONE', #156, 1.499999999999996669 ) ;
#49 = VERTEX_POINT ( 'NONE', #120 ) ;
#50 = DIRECTION ( 'NONE',  ( 3.491481338843133355E-15, -1.224646799147353207E-16, 1.000000000000000000 ) ) ;
#51 = PERSON_AND_ORGANIZATION ( #129, #151 ) ;
#52 = CARTESIAN_POINT ( 'NONE',  ( 6.284666409917640040E-14, 0.9699999999999977529, 18.00000000000000000 ) ) ;
#53 = COORDINATED_UNIVERSAL_TIME_OFFSET ( 1, 0, .AHEAD. ) ;
#54 = CARTESIAN_POINT ( 'NONE',  ( 7.395221673077216217E-14, 1.499999999999994005, 21.18075669144932860 ) ) ;
#55 = CIRCLE ( 'NONE', #222, 1.500000000000001554 ) ;
#56 = AXIS2_PLACEMENT_3D ( 'NONE', #233, #105, #198 ) ;
#57 = DATE_TIME_ROLE ( 'creation_date' ) ;
#58 = COORDINATED_UNIVERSAL_TIME_OFFSET ( 1, 0, .AHEAD. ) ;
#59 = ORIENTED_EDGE ( 'NONE', *, *, #60, .T. ) ;
#60 = EDGE_CURVE ( 'NONE', #75, #75, #29, .T. ) ;
#61 = ADVANCED_FACE ( 'NONE', ( #90, #226 ), #237, .T. ) ;
#62 = FACE_OUTER_BOUND ( 'NONE', #65, .T. ) ;
#63 = CC_DESIGN_APPROVAL ( #179, ( #282 ) ) ;
#64 = DIRECTION ( 'NONE',  ( 4.275831445896958607E-31, 1.000000000000000000, 1.224646799147353207E-16 ) ) ;
#65 = EDGE_LOOP ( 'NONE', ( #181 ) ) ;
#66 = PLANE ( 'NONE',  #261 ) ;
#67 = ADVANCED_FACE ( 'NONE', ( #267 ), #115, .F. ) ;
#68 = ORIENTED_EDGE ( 'NONE', *, *, #170, .F. ) ;
#69 = CARTESIAN_POINT ( 'NONE',  ( 1.745740669421566678E-13, -6.123233995736766085E-15, 50.00000000000000000 ) ) ;
#70 = AXIS2_PLACEMENT_3D ( 'NONE', #302, #205, #93 ) ;
#71 = AXIS2_PLACEMENT_3D ( 'NONE', #148, #50, #281 ) ;
#72 = DIRECTION ( 'NONE',  ( 4.275831445896958607E-31, 1.000000000000000000, 1.224646799147353207E-16 ) ) ;
#73 = CARTESIAN_POINT ( 'NONE',  ( 0.0000000000000000000, 0.0000000000000000000, 0.0000000000000000000 ) ) ;
#74 = EDGE_CURVE ( 'NONE', #253, #253, #131, .T. ) ;
#75 = VERTEX_POINT ( 'NONE', #167 ) ;
#76 = APPROVAL_PERSON_ORGANIZATION ( #123, #37, #284 ) ;
#77 = CARTESIAN_POINT ( 'NONE',  ( 1.735266225405037467E-13, 1.499999999999995559, 49.70000000000000284 ) ) ;
#78 = DATE_AND_TIME ( #150, #30 ) ;
#79 = ADVANCED_FACE ( 'NONE', ( #109 ), #210, .F. ) ;
#80 = PLANE ( 'NONE',  #15 ) ;
#81 = COORDINATED_UNIVERSAL_TIME_OFFSET ( 1, 0, .AHEAD. ) ;
#82 = APPROVAL_STATUS ( 'not_yet_approved' ) ;
#83 = APPLICATION_PROTOCOL_DEFINITION ( 'international standard', 'config_control_design', 1994, #264 ) ;
#84 = CONICAL_SURFACE ( 'NONE', #99, 1.499999999999996669, 0.1745329251994261754 ) ;
#85 = DATE_AND_TIME ( #152, #242 ) ;
#86 = EDGE_LOOP ( 'NONE', ( #140 ) ) ;
#87 = ORIENTED_EDGE ( 'NONE', *, *, #269, .F. ) ;
#88 = DIRECTION ( 'NONE',  ( -3.491481338843133355E-15, 1.224646799147353207E-16, -1.000000000000000000 ) ) ;
#89 = CONICAL_SURFACE ( 'NONE', #71, 1.123499999999998833, 0.5235987755982924874 ) ;
#90 = FACE_OUTER_BOUND ( 'NONE', #143, .T. ) ;
#91 = ADVANCED_FACE ( 'NONE', ( #62, #244 ), #245, .T. ) ;
#92 = CARTESIAN_POINT ( 'NONE',  ( 6.405924284287275164E-14, -2.246895775456749140E-15, 18.34729635533384595 ) ) ;
#93 = DIRECTION ( 'NONE',  ( -4.275831445896958607E-31, -1.000000000000000000, -1.224646799147353207E-16 ) ) ;
#94 = AXIS2_PLACEMENT_3D ( 'NONE', #189, #155, #42 ) ;
#95 = CIRCLE ( 'NONE', #301, 0.9699999999999999734 ) ;
#96 = PRODUCT_RELATED_PRODUCT_CATEGORY ( 'detail', '', ( #159 ) ) ;
#97 = DIRECTION ( 'NONE',  ( -3.491481338843133355E-15, 1.224646799147353207E-16, -1.000000000000000000 ) ) ;
#98 = DIRECTION ( 'NONE',  ( 0.0000000000000000000, 1.000000000000000000, 0.0000000000000000000 ) ) ;
#99 = AXIS2_PLACEMENT_3D ( 'NONE', #21, #272, #134 ) ;
#100 = VERTEX_POINT ( 'NONE', #193 ) ;
#101 = DIRECTION ( 'NONE',  ( 0.0000000000000000000, 0.0000000000000000000, 1.000000000000000000 ) ) ;
#102 = CC_DESIGN_PERSON_AND_ORGANIZATION_ASSIGNMENT ( #199, #286, ( #282 ) ) ;
#103 = CARTESIAN_POINT ( 'NONE',  ( 6.405924284287275164E-14, 1.000384493975578382, 18.34729635533384595 ) ) ;
#104 = DATE_AND_TIME ( #219, #296 ) ;
#105 = DIRECTION ( 'NONE',  ( -3.491481338843133355E-15, 1.224646799147353207E-16, -1.000000000000000000 ) ) ;
#106 = DIRECTION ( 'NONE',  ( 1.000000000000000000, 0.0000000000000000000, 0.0000000000000000000 ) ) ;
#107 = CC_DESIGN_PERSON_AND_ORGANIZATION_ASSIGNMENT ( #197, #235, ( #204 ) ) ;
#108 = CC_DESIGN_PERSON_AND_ORGANIZATION_ASSIGNMENT ( #34, #195, ( #159 ) ) ;
#109 = FACE_OUTER_BOUND ( 'NONE', #137, .T. ) ;
#110 = DIRECTION ( 'NONE',  ( -3.491481338843133355E-15, 1.224646799147353207E-16, -1.000000000000000000 ) ) ;
#111 = ADVANCED_FACE ( 'NONE', ( #300, #190 ), #84, .T. ) ;
#112 = CC_DESIGN_SECURITY_CLASSIFICATION ( #282, ( #203 ) ) ;
#113 = DIRECTION ( 'NONE',  ( 4.275831445896958607E-31, 1.000000000000000000, 1.224646799147353454E-16 ) ) ;
#114 = MANIFOLD_SOLID_BREP ( 'Corps-Déplacer/Copier1[1]', #265 ) ;
#115 = PLANE ( 'NONE',  #70 ) ;
#116 = EDGE_CURVE ( 'NONE', #285, #285, #232, .T. ) ;
#117 = CARTESIAN_POINT ( 'NONE',  ( 0.0000000000000000000, 0.0000000000000000000, 0.0000000000000000000 ) ) ;
#118 = CLOSED_SHELL ( 'NONE', ( #67, #194, #91, #142 ) ) ;
#119 = CARTESIAN_POINT ( 'NONE',  ( 2.793185071074506684E-14, 1.123499999999998833, 8.000000000000000000 ) ) ;
#120 = CARTESIAN_POINT ( 'NONE',  ( -3.785471652766322713E-31, 0.9791624327025945096, -1.084202172485504434E-16 ) ) ;
#121 = EDGE_LOOP ( 'NONE', ( #186 ) ) ;
#122 = CARTESIAN_POINT ( 'NONE',  ( 2.793185071074506684E-14, 8.424900579102968061E-33, 8.000000000000000000 ) ) ;
#123 = PERSON_AND_ORGANIZATION ( #129, #151 ) ;
#124 =( NAMED_UNIT ( * ) PLANE_ANGLE_UNIT ( ) SI_UNIT ( $, .RADIAN. ) );
#125 = APPROVAL_STATUS ( 'not_yet_approved' ) ;
#126 = DIRECTION ( 'NONE',  ( -3.491481338843133355E-15, 1.224646799147353207E-16, -1.000000000000000000 ) ) ;
#127 = ADVANCED_FACE ( 'NONE', ( #274, #46 ), #10, .F. ) ;
#128 = DATE_AND_TIME ( #288, #139 ) ;
#129 = PERSON ( 'UNSPECIFIED', 'UNSPECIFIED', 'UNSPECIFIED', ('UNSPECIFIED'), ('UNSPECIFIED'), ('UNSPECIFIED') ) ;
#130 = CC_DESIGN_PERSON_AND_ORGANIZATION_ASSIGNMENT ( #51, #5, ( #203 ) ) ;
#131 = CIRCLE ( 'NONE', #94, 1.123499999999999943 ) ;
#132 = EDGE_LOOP ( 'NONE', ( #39 ) ) ;
#133 = CONICAL_SURFACE ( 'NONE', #191, 0.9699999999999987521, 0.5235987755982944858 ) ;
#134 = DIRECTION ( 'NONE',  ( 0.0000000000000000000, -1.000000000000000000, 0.0000000000000000000 ) ) ;
#135 = ADVANCED_FACE ( 'NONE', ( #223, #158 ), #144, .T. ) ;
#136 = DIRECTION ( 'NONE',  ( -3.491481338843133355E-15, 1.224646799147353207E-16, -1.000000000000000000 ) ) ;
#137 = EDGE_LOOP ( 'NONE', ( #192 ) ) ;
#138 = EDGE_LOOP ( 'NONE', ( #157 ) ) ;
#139 = LOCAL_TIME ( 7, 45, 0.0000000000000000000, #53 ) ;
#140 = ORIENTED_EDGE ( 'NONE', *, *, #74, .T. ) ;
#141 = CARTESIAN_POINT ( 'NONE',  ( 0.0000000000000000000, 0.0000000000000000000, 0.0000000000000000000 ) ) ;
#142 = ADVANCED_FACE ( 'NONE', ( #270 ), #66, .T. ) ;
#143 = EDGE_LOOP ( 'NONE', ( #87 ) ) ;
#144 = CYLINDRICAL_SURFACE ( 'NONE', #177, 1.499999999999999112 ) ;
#145 = DIRECTION ( 'NONE',  ( -3.491481338843133355E-15, 1.224646799147353207E-16, -1.000000000000000000 ) ) ;
#146 = AXIS2_PLACEMENT_3D ( 'NONE', #209, #295, #44 ) ;
#147 =( LENGTH_UNIT ( ) NAMED_UNIT ( * ) SI_UNIT ( .MILLI., .METRE. ) );
#148 = CARTESIAN_POINT ( 'NONE',  ( 8.728703347107829444E-16, -3.061616997868381785E-17, 0.2499999999999998890 ) ) ;
#149 = DIRECTION ( 'NONE',  ( 0.0000000000000000000, 1.000000000000000000, 0.0000000000000000000 ) ) ;
#150 = CALENDAR_DATE ( 2021, 30, 11 ) ;
#151 = ORGANIZATION ( 'UNSPECIFIED', 'UNSPECIFIED', '' ) ;
#152 = CALENDAR_DATE ( 2021, 30, 11 ) ;
#153 = CC_DESIGN_DATE_AND_TIME_ASSIGNMENT ( #128, #201, ( #282 ) ) ;
#154 = CC_DESIGN_PERSON_AND_ORGANIZATION_ASSIGNMENT ( #257, #259, ( #203 ) ) ;
#155 = DIRECTION ( 'NONE',  ( -3.491481338843133355E-15, 1.224646799147353207E-16, -1.000000000000000000 ) ) ;
#156 = AXIS2_PLACEMENT_3D ( 'NONE', #249, #174, #168 ) ;
#157 = ORIENTED_EDGE ( 'NONE', *, *, #252, .T. ) ;
#158 = FACE_OUTER_BOUND ( 'NONE', #271, .T. ) ;
#159 = PRODUCT ( '326981', '326981', '', ( #202 ) ) ;
#160 = EDGE_LOOP ( 'NONE', ( #188 ) ) ;
#161 = CARTESIAN_POINT ( 'NONE',  ( 2.793185071074506684E-14, 8.424900579102968061E-33, 8.000000000000000000 ) ) ;
#162 = ORIENTED_EDGE ( 'NONE', *, *, #273, .F. ) ;
#163 = DIRECTION ( 'NONE',  ( -4.275831445896958607E-31, -1.000000000000000000, -1.224646799147353207E-16 ) ) ;
#164 = AXIS2_PLACEMENT_3D ( 'NONE', #92, #110, #183 ) ;
#165 = AXIS2_PLACEMENT_3D ( 'NONE', #117, #38, #64 ) ;
#166 = EDGE_LOOP ( 'NONE', ( #59 ) ) ;
#167 = CARTESIAN_POINT ( 'NONE',  ( 1.745740669421566678E-13, 1.199999999999995515, 50.00000000000000000 ) ) ;
#168 = DIRECTION ( 'NONE',  ( 0.0000000000000000000, 1.000000000000000000, 0.0000000000000000000 ) ) ;
#169 = APPROVAL_ROLE ( '' ) ;
#170 = EDGE_CURVE ( 'NONE', #240, #240, #48, .T. ) ;
#171 = APPROVAL_DATE_TIME ( #78, #37 ) ;
#172 = DIRECTION ( 'NONE',  ( -3.491481338843133355E-15, 1.224646799147353207E-16, -1.000000000000000000 ) ) ;
#173 = PERSON_AND_ORGANIZATION ( #129, #151 ) ;
#174 = DIRECTION ( 'NONE',  ( -3.491481338843133355E-15, 1.224646799147353207E-16, -1.000000000000000000 ) ) ;
#175 = ADVANCED_FACE ( 'NONE', ( #33 ), #80, .F. ) ;
#176 = APPROVAL_DATE_TIME ( #7, #2 ) ;
#177 = AXIS2_PLACEMENT_3D ( 'NONE', #141, #224, #113 ) ;
#178 = SECURITY_CLASSIFICATION_LEVEL ( 'unclassified' ) ;
#179 = APPROVAL ( #292, 'UNSPECIFIED' ) ;
#180 = CC_DESIGN_APPROVAL ( #2, ( #204 ) ) ;
#181 = ORIENTED_EDGE ( 'NONE', *, *, #8, .F. ) ;
#182 = ORIENTED_EDGE ( 'NONE', *, *, #227, .T. ) ;
#183 = DIRECTION ( 'NONE',  ( 0.0000000000000000000, 1.000000000000000000, 0.0000000000000000000 ) ) ;
#184 = APPROVAL_PERSON_ORGANIZATION ( #11, #179, #255 ) ;
#185 = PRODUCT_DEFINITION_SHAPE ( 'NONE', 'NONE',  #204 ) ;
#186 = ORIENTED_EDGE ( 'NONE', *, *, #32, .F. ) ;
#187 = DIRECTION ( 'NONE',  ( 0.0000000000000000000, 1.000000000000000000, 0.0000000000000000000 ) ) ;
#188 = ORIENTED_EDGE ( 'NONE', *, *, #227, .F. ) ;
#189 = CARTESIAN_POINT ( 'NONE',  ( 2.793185071074506684E-14, -9.797174393178825657E-16, 8.000000000000000000 ) ) ;
#190 = FACE_OUTER_BOUND ( 'NONE', #298, .T. ) ;
#191 = AXIS2_PLACEMENT_3D ( 'NONE', #256, #3, #234 ) ;
#192 = ORIENTED_EDGE ( 'NONE', *, *, #60, .F. ) ;
#193 = CARTESIAN_POINT ( 'NONE',  ( 8.728703347107833388E-16, 1.123499999999998833, 0.2500000000000000555 ) ) ;
#194 = ADVANCED_FACE ( 'NONE', ( #6, #214 ), #89, .T. ) ;
#195 = PERSON_AND_ORGANIZATION_ROLE ( 'design_owner' ) ;
#196 = DIRECTION ( 'NONE',  ( 3.491481338843133355E-15, -1.224646799147353207E-16, 1.000000000000000000 ) ) ;
#197 = PERSON_AND_ORGANIZATION ( #129, #151 ) ;
#198 = DIRECTION ( 'NONE',  ( 0.0000000000000000000, 1.000000000000000000, 0.0000000000000000000 ) ) ;
#199 = PERSON_AND_ORGANIZATION ( #129, #151 ) ;
#200 = DIRECTION ( 'NONE',  ( -4.275831445896958607E-31, -1.000000000000000000, -1.224646799147353207E-16 ) ) ;
#201 = DATE_TIME_ROLE ( 'classification_date' ) ;
#202 = MECHANICAL_CONTEXT ( 'NONE', #264, 'mechanical' ) ;
#203 = PRODUCT_DEFINITION_FORMATION_WITH_SPECIFIED_SOURCE ( 'ANY', '', #159, .NOT_KNOWN. ) ;
#204 = PRODUCT_DEFINITION ( 'UNKNOWN', '', #203, #268 ) ;
#205 = DIRECTION ( 'NONE',  ( 3.491481338843133355E-15, -1.224646799147353207E-16, 1.000000000000000000 ) ) ;
#206 = DIRECTION ( 'NONE',  ( -3.491481338843133355E-15, 1.224646799147353207E-16, -1.000000000000000000 ) ) ;
#207 =( GEOMETRIC_REPRESENTATION_CONTEXT ( 3 ) GLOBAL_UNCERTAINTY_ASSIGNED_CONTEXT ( ( #277 ) ) GLOBAL_UNIT_ASSIGNED_CONTEXT ( ( #147, #124, #9 ) ) REPRESENTATION_CONTEXT ( 'NONE', 'WORKASPACE' ) );
#208 = EDGE_LOOP ( 'NONE', ( #43 ) ) ;
#209 = CARTESIAN_POINT ( 'NONE',  ( 8.728703347107829444E-16, -3.061616997868381785E-17, 0.2499999999999998890 ) ) ;
#210 = PLANE ( 'NONE',  #260 ) ;
#211 = CARTESIAN_POINT ( 'NONE',  ( 2.793185071074506684E-14, -9.797174393178825657E-16, 8.000000000000000000 ) ) ;
#212 = AXIS2_PLACEMENT_3D ( 'NONE', #31, #101, #106 ) ;
#213 = CARTESIAN_POINT ( 'NONE',  ( 2.886013015238225878E-14, 0.9699999999999977529, 8.265869798961826831 ) ) ;
#214 = FACE_OUTER_BOUND ( 'NONE', #248, .T. ) ;
#215 = FACE_OUTER_BOUND ( 'NONE', #160, .T. ) ;
#216 = CALENDAR_DATE ( 2021, 30, 11 ) ;
#217 = CC_DESIGN_DATE_AND_TIME_ASSIGNMENT ( #104, #57, ( #204 ) ) ;
#218 = FACE_BOUND ( 'NONE', #13, .T. ) ;
#219 = CALENDAR_DATE ( 2021, 30, 11 ) ;
#220 = AXIS2_PLACEMENT_3D ( 'NONE', #230, #206, #297 ) ;
#221 = ADVANCED_FACE ( 'NONE', ( #1, #218 ), #133, .T. ) ;
#222 = AXIS2_PLACEMENT_3D ( 'NONE', #26, #145, #149 ) ;
#223 = FACE_OUTER_BOUND ( 'NONE', #250, .T. ) ;
#224 = DIRECTION ( 'NONE',  ( -3.491481338843133355E-15, 1.224646799147353207E-16, -1.000000000000000000 ) ) ;
#225 = EDGE_LOOP ( 'NONE', ( #18 ) ) ;
#226 = FACE_BOUND ( 'NONE', #166, .T. ) ;
#227 = EDGE_CURVE ( 'NONE', #254, #254, #243, .T. ) ;
#228 = EDGE_LOOP ( 'NONE', ( #162 ) ) ;
#229 = DIRECTION ( 'NONE',  ( -3.491481338843133355E-15, 1.224646799147353207E-16, -1.000000000000000000 ) ) ;
#230 = CARTESIAN_POINT ( 'NONE',  ( 1.745740669421566678E-13, -6.123233995736766085E-15, 50.00000000000000000 ) ) ;
#231 = DIRECTION ( 'NONE',  ( 4.275831445896958607E-31, 1.000000000000000000, 1.224646799147353207E-16 ) ) ;
#232 = CIRCLE ( 'NONE', #266, 1.123499999999999943 ) ;
#233 = CARTESIAN_POINT ( 'NONE',  ( 2.886013015238225878E-14, -1.012277099146737755E-15, 8.265869798961826831 ) ) ;
#234 = DIRECTION ( 'NONE',  ( 0.0000000000000000000, 1.000000000000000000, 0.0000000000000000000 ) ) ;
#235 = PERSON_AND_ORGANIZATION_ROLE ( 'creator' ) ;
#236 = VERTEX_POINT ( 'NONE', #77 ) ;
#237 = CONICAL_SURFACE ( 'NONE', #14, 1.200000000000001732, 0.7853981633974453924 ) ;
#238 = APPROVAL_DATE_TIME ( #85, #179 ) ;
#239 = AXIS2_PLACEMENT_3D ( 'NONE', #276, #97, #47 ) ;
#240 = VERTEX_POINT ( 'NONE', #54 ) ;
#241 = SHAPE_DEFINITION_REPRESENTATION ( #185, #279 ) ;
#242 = LOCAL_TIME ( 7, 45, 0.0000000000000000000, #280 ) ;
#243 = CIRCLE ( 'NONE', #56, 0.9699999999999987521 ) ;
#244 = FACE_OUTER_BOUND ( 'NONE', #86, .T. ) ;
#245 = CYLINDRICAL_SURFACE ( 'NONE', #165, 1.123499999999999499 ) ;
#246 = ORIENTED_EDGE ( 'NONE', *, *, #32, .T. ) ;
#247 = DIRECTION ( 'NONE',  ( -3.491481338843133355E-15, 1.224646799147353207E-16, -1.000000000000000000 ) ) ;
#248 = EDGE_LOOP ( 'NONE', ( #41 ) ) ;
#249 = CARTESIAN_POINT ( 'NONE',  ( 7.395221673077216217E-14, -2.593894588570230622E-15, 21.18075669144932860 ) ) ;
#250 = EDGE_LOOP ( 'NONE', ( #68 ) ) ;
#251 = DIRECTION ( 'NONE',  ( 4.275831445896958607E-31, 1.000000000000000000, 1.224646799147353207E-16 ) ) ;
#252 = EDGE_CURVE ( 'NONE', #49, #49, #275, .T. ) ;
#253 = VERTEX_POINT ( 'NONE', #25 ) ;
#254 = VERTEX_POINT ( 'NONE', #213 ) ;
#255 = APPROVAL_ROLE ( '' ) ;
#256 = CARTESIAN_POINT ( 'NONE',  ( 2.886013015238225878E-14, -1.012277099146737755E-15, 8.265869798961826831 ) ) ;
#257 = PERSON_AND_ORGANIZATION ( #129, #151 ) ;
#258 = VERTEX_POINT ( 'NONE', #52 ) ;
#259 = PERSON_AND_ORGANIZATION_ROLE ( 'creator' ) ;
#260 = AXIS2_PLACEMENT_3D ( 'NONE', #16, #229, #251 ) ;
#261 = AXIS2_PLACEMENT_3D ( 'NONE', #161, #299, #163 ) ;
#262 = COORDINATED_UNIVERSAL_TIME_OFFSET ( 1, 0, .AHEAD. ) ;
#263 = ORIENTED_EDGE ( 'NONE', *, *, #252, .F. ) ;
#264 = APPLICATION_CONTEXT ( 'configuration controlled 3d designs of mechanical parts and assemblies' ) ;
#265 = CLOSED_SHELL ( 'NONE', ( #175, #221, #289, #127, #111, #135, #61, #79 ) ) ;
#266 = AXIS2_PLACEMENT_3D ( 'NONE', #211, #247, #187 ) ;
#267 = FACE_OUTER_BOUND ( 'NONE', #138, .T. ) ;
#268 = DESIGN_CONTEXT ( 'detailed design', #283, 'design' ) ;
#269 = EDGE_CURVE ( 'NONE', #236, #236, #55, .T. ) ;
#270 = FACE_OUTER_BOUND ( 'NONE', #225, .T. ) ;
#271 = EDGE_LOOP ( 'NONE', ( #19 ) ) ;
#272 = DIRECTION ( 'NONE',  ( 3.491481338843133355E-15, -1.224646799147353207E-16, 1.000000000000000000 ) ) ;
#273 = EDGE_CURVE ( 'NONE', #258, #258, #95, .T. ) ;
#274 = FACE_OUTER_BOUND ( 'NONE', #228, .T. ) ;
#275 = CIRCLE ( 'NONE', #239, 0.9791624327025945096 ) ;
#276 = CARTESIAN_POINT ( 'NONE',  ( -7.972205173157041605E-31, 2.796273157423678652E-32, -2.283330311540072647E-16 ) ) ;
#277 = UNCERTAINTY_MEASURE_WITH_UNIT (LENGTH_MEASURE( 1.000000000000000082E-05 ), #147, 'distance_accuracy_value', 'NONE');
#278 = VERTEX_POINT ( 'NONE', #103 ) ;
#279 = ADVANCED_BREP_SHAPE_REPRESENTATION ( '326981', ( #114, #17, #212 ), #207 ) ;
#280 = COORDINATED_UNIVERSAL_TIME_OFFSET ( 1, 0, .AHEAD. ) ;
#281 = DIRECTION ( 'NONE',  ( -3.428446718980396527E-31, -1.000000000000000000, -1.447532940568098318E-16 ) ) ;
#282 = SECURITY_CLASSIFICATION ( '', '', #178 ) ;
#283 = APPLICATION_CONTEXT ( 'configuration controlled 3d designs of mechanical parts and assemblies' ) ;
#284 = APPROVAL_ROLE ( '' ) ;
#285 = VERTEX_POINT ( 'NONE', #119 ) ;
#286 = PERSON_AND_ORGANIZATION_ROLE ( 'classification_officer' ) ;
#287 = FACE_OUTER_BOUND ( 'NONE', #208, .T. ) ;
#288 = CALENDAR_DATE ( 2021, 30, 11 ) ;
#289 = ADVANCED_FACE ( 'NONE', ( #215, #287 ), #303, .T. ) ;
#290 = CIRCLE ( 'NONE', #146, 1.123499999999998833 ) ;
#291 = APPROVAL_PERSON_ORGANIZATION ( #173, #2, #169 ) ;
#292 = APPROVAL_STATUS ( 'not_yet_approved' ) ;
#293 = CIRCLE ( 'NONE', #164, 1.000384493975580380 ) ;
#294 = ORIENTED_EDGE ( 'NONE', *, *, #170, .T. ) ;
#295 = DIRECTION ( 'NONE',  ( -3.491481338843133355E-15, 1.224646799147353207E-16, -1.000000000000000000 ) ) ;
#296 = LOCAL_TIME ( 7, 45, 0.0000000000000000000, #262 ) ;
#297 = DIRECTION ( 'NONE',  ( 0.0000000000000000000, 1.000000000000000000, 0.0000000000000000000 ) ) ;
#298 = EDGE_LOOP ( 'NONE', ( #294 ) ) ;
#299 = DIRECTION ( 'NONE',  ( 3.491481338843133355E-15, -1.224646799147353207E-16, 1.000000000000000000 ) ) ;
#300 = FACE_BOUND ( 'NONE', #121, .T. ) ;
#301 = AXIS2_PLACEMENT_3D ( 'NONE', #27, #126, #98 ) ;
#302 = CARTESIAN_POINT ( 'NONE',  ( -3.986102586578520802E-31, 1.398136578711839326E-32, -1.141665155770036323E-16 ) ) ;
#303 = CYLINDRICAL_SURFACE ( 'NONE', #35, 0.9699999999999993072 ) ;
ENDSEC;
END-ISO-10303-21;
