ISO-10303-21;
HEADER;
FILE_DESCRIPTION (( 'STEP AP203' ),
    '1' );
FILE_NAME ('326980.step',
    '2021-11-30T06:44:59',
    ( '' ),
    ( '' ),
    'SwSTEP 2.0',
    'SolidWorks 2019',
    '' );
FILE_SCHEMA (( 'CONFIG_CONTROL_DESIGN' ));
ENDSEC;

DATA;
#1 = FACE_BOUND ( 'NONE', #167, .T. ) ;
#2 = CC_DESIGN_SECURITY_CLASSIFICATION ( #132, ( #227 ) ) ;
#3 = PERSON_AND_ORGANIZATION_ROLE ( 'design_owner' ) ;
#4 = PERSON_AND_ORGANIZATION ( #13, #255 ) ;
#5 =( NAMED_UNIT ( * ) PLANE_ANGLE_UNIT ( ) SI_UNIT ( $, .RADIAN. ) );
#6 = PERSON_AND_ORGANIZATION_ROLE ( 'creator' ) ;
#7 = EDGE_LOOP ( 'NONE', ( #79 ) ) ;
#8 = ORIENTED_EDGE ( 'NONE', *, *, #284, .F. ) ;
#9 = APPROVAL ( #140, 'UNSPECIFIED' ) ;
#10 = CARTESIAN_POINT ( 'NONE',  ( 1.745740669421566678E-13, 8.998558695971067645E-33, 50.00000000000000000 ) ) ;
#11 = DIRECTION ( 'NONE',  ( 0.0000000000000000000, 1.000000000000000000, 0.0000000000000000000 ) ) ;
#12 = CARTESIAN_POINT ( 'NONE',  ( 1.735266225405037467E-13, -6.086494591762345225E-15, 49.70000000000000284 ) ) ;
#13 = PERSON ( 'UNSPECIFIED', 'UNSPECIFIED', 'UNSPECIFIED', ('UNSPECIFIED'), ('UNSPECIFIED'), ('UNSPECIFIED') ) ;
#14 = FACE_OUTER_BOUND ( 'NONE', #244, .T. ) ;
#15 = FACE_OUTER_BOUND ( 'NONE', #271, .T. ) ;
#16 = DIRECTION ( 'NONE',  ( 0.0000000000000000000, 1.000000000000000000, 0.0000000000000000000 ) ) ;
#17 = FACE_OUTER_BOUND ( 'NONE', #31, .T. ) ;
#18 = CARTESIAN_POINT ( 'NONE',  ( -6.058090189544394877E-31, 2.124891998428879377E-32, -1.735105991301583307E-16 ) ) ;
#19 = CIRCLE ( 'NONE', #241, 0.9649999999999997469 ) ;
#20 = CARTESIAN_POINT ( 'NONE',  ( 7.405122260397474650E-14, -2.597367247133959411E-15, 21.20911310054741961 ) ) ;
#21 = DIRECTION ( 'NONE',  ( -3.491481338843133355E-15, 1.224646799147353207E-16, -1.000000000000000000 ) ) ;
#22 = SECURITY_CLASSIFICATION_LEVEL ( 'unclassified' ) ;
#23 = CARTESIAN_POINT ( 'NONE',  ( 8.728703347107833388E-16, 1.118499999999998940, 0.2500000000000000555 ) ) ;
#24 = PERSON_AND_ORGANIZATION ( #13, #255 ) ;
#25 = AXIS2_PLACEMENT_3D ( 'NONE', #103, #291, #147 ) ;
#26 = DIRECTION ( 'NONE',  ( 0.0000000000000000000, 0.0000000000000000000, 1.000000000000000000 ) ) ;
#27 = MECHANICAL_CONTEXT ( 'NONE', #178, 'mechanical' ) ;
#28 = APPLICATION_CONTEXT ( 'configuration controlled 3d designs of mechanical parts and assemblies' ) ;
#29 = DATE_TIME_ROLE ( 'classification_date' ) ;
#30 = EDGE_LOOP ( 'NONE', ( #171 ) ) ;
#31 = EDGE_LOOP ( 'NONE', ( #98 ) ) ;
#32 = CC_DESIGN_DATE_AND_TIME_ASSIGNMENT ( #238, #94, ( #240 ) ) ;
#33 = DATE_AND_TIME ( #56, #286 ) ;
#34 = DIRECTION ( 'NONE',  ( 4.275831445896958607E-31, 1.000000000000000000, 1.224646799147353207E-16 ) ) ;
#35 = CYLINDRICAL_SURFACE ( 'NONE', #190, 0.9649999999999990807 ) ;
#36 = CIRCLE ( 'NONE', #170, 1.118499999999998940 ) ;
#37 = ORIENTED_EDGE ( 'NONE', *, *, #220, .F. ) ;
#38 = ORIENTED_EDGE ( 'NONE', *, *, #163, .T. ) ;
#39 = EDGE_LOOP ( 'NONE', ( #38 ) ) ;
#40 = VERTEX_POINT ( 'NONE', #202 ) ;
#41 = ADVANCED_FACE ( 'NONE', ( #65 ), #152, .F. ) ;
#42 = DIRECTION ( 'NONE',  ( 3.491481338843133355E-15, -1.224646799147353207E-16, 1.000000000000000000 ) ) ;
#43 = DIRECTION ( 'NONE',  ( -3.491481338843133355E-15, 1.224646799147353207E-16, -1.000000000000000000 ) ) ;
#44 = DIRECTION ( 'NONE',  ( -4.275831445896958607E-31, -1.000000000000000000, -1.224646799147353207E-16 ) ) ;
#45 = APPROVAL_PERSON_ORGANIZATION ( #119, #290, #217 ) ;
#46 = ADVANCED_FACE ( 'NONE', ( #225, #272 ), #242, .F. ) ;
#47 = DIRECTION ( 'NONE',  ( -3.491481338843133355E-15, 1.224646799147353207E-16, -1.000000000000000000 ) ) ;
#48 = DATE_AND_TIME ( #267, #123 ) ;
#49 = CALENDAR_DATE ( 2021, 30, 11 ) ;
#50 = AXIS2_PLACEMENT_3D ( 'NONE', #182, #205, #186 ) ;
#51 = PERSON_AND_ORGANIZATION ( #13, #255 ) ;
#52 = EDGE_LOOP ( 'NONE', ( #269 ) ) ;
#53 = COORDINATED_UNIVERSAL_TIME_OFFSET ( 1, 0, .AHEAD. ) ;
#54 =( GEOMETRIC_REPRESENTATION_CONTEXT ( 3 ) GLOBAL_UNCERTAINTY_ASSIGNED_CONTEXT ( ( #200 ) ) GLOBAL_UNIT_ASSIGNED_CONTEXT ( ( #216, #5, #165 ) ) REPRESENTATION_CONTEXT ( 'NONE', 'WORKASPACE' ) );
#55 = AXIS2_PLACEMENT_3D ( 'NONE', #112, #73, #235 ) ;
#56 = CALENDAR_DATE ( 2021, 30, 11 ) ;
#57 = ORIENTED_EDGE ( 'NONE', *, *, #99, .T. ) ;
#58 = AXIS2_PLACEMENT_3D ( 'NONE', #10, #226, #108 ) ;
#59 = CARTESIAN_POINT ( 'NONE',  ( 6.284666409917640040E-14, -2.204364238465235428E-15, 18.00000000000000000 ) ) ;
#60 = ADVANCED_FACE ( 'NONE', ( #15, #101 ), #104, .T. ) ;
#61 = FACE_OUTER_BOUND ( 'NONE', #243, .T. ) ;
#62 = CC_DESIGN_APPROVAL ( #290, ( #240 ) ) ;
#63 = FACE_OUTER_BOUND ( 'NONE', #118, .T. ) ;
#64 = DIRECTION ( 'NONE',  ( -4.275831445896958607E-31, -1.000000000000000000, -1.224646799147353207E-16 ) ) ;
#65 = FACE_OUTER_BOUND ( 'NONE', #106, .T. ) ;
#66 = CC_DESIGN_PERSON_AND_ORGANIZATION_ASSIGNMENT ( #51, #3, ( #281 ) ) ;
#67 = CARTESIAN_POINT ( 'NONE',  ( -1.892735826383161356E-31, 0.9741624327025943941, -5.421010862427522170E-17 ) ) ;
#68 = ADVANCED_FACE ( 'NONE', ( #197 ), #195, .T. ) ;
#69 = DIRECTION ( 'NONE',  ( 4.275831445896958607E-31, 1.000000000000000000, 1.224646799147353207E-16 ) ) ;
#70 = CARTESIAN_POINT ( 'NONE',  ( 8.728703347107829444E-16, -3.061616997868381785E-17, 0.2499999999999998890 ) ) ;
#71 = CARTESIAN_POINT ( 'NONE',  ( 6.284666409917640040E-14, 0.9649999999999975264, 18.00000000000000000 ) ) ;
#72 = AXIS2_PLACEMENT_3D ( 'NONE', #203, #184, #87 ) ;
#73 = DIRECTION ( 'NONE',  ( -3.491481338843133355E-15, 1.224646799147353207E-16, -1.000000000000000000 ) ) ;
#74 = CARTESIAN_POINT ( 'NONE',  ( 0.0000000000000000000, 0.0000000000000000000, 0.0000000000000000000 ) ) ;
#75 = CALENDAR_DATE ( 2021, 30, 11 ) ;
#76 = APPROVAL_PERSON_ORGANIZATION ( #77, #159, #210 ) ;
#77 = PERSON_AND_ORGANIZATION ( #13, #255 ) ;
#78 = ADVANCED_FACE ( 'NONE', ( #61, #296 ), #201, .T. ) ;
#79 = ORIENTED_EDGE ( 'NONE', *, *, #292, .T. ) ;
#80 = CIRCLE ( 'NONE', #278, 1.500000000000001554 ) ;
#81 = DIRECTION ( 'NONE',  ( 3.491481338843133355E-15, -1.224646799147353207E-16, 1.000000000000000000 ) ) ;
#82 = DIRECTION ( 'NONE',  ( 4.275831445896958607E-31, 1.000000000000000000, 1.224646799147353454E-16 ) ) ;
#83 = CARTESIAN_POINT ( 'NONE',  ( 6.405924284287275164E-14, -2.246895775456749140E-15, 18.34729635533384595 ) ) ;
#84 = ADVANCED_FACE ( 'NONE', ( #245, #14 ), #198, .T. ) ;
#85 = EDGE_LOOP ( 'NONE', ( #125 ) ) ;
#86 = VERTEX_POINT ( 'NONE', #67 ) ;
#87 = DIRECTION ( 'NONE',  ( 0.0000000000000000000, 1.000000000000000000, 0.0000000000000000000 ) ) ;
#88 = VERTEX_POINT ( 'NONE', #250 ) ;
#89 = PRODUCT_DEFINITION_SHAPE ( 'NONE', 'NONE',  #240 ) ;
#90 = PLANE ( 'NONE',  #295 ) ;
#91 = CC_DESIGN_APPROVAL ( #159, ( #227 ) ) ;
#92 = DIRECTION ( 'NONE',  ( -3.491481338843133355E-15, 1.224646799147353207E-16, -1.000000000000000000 ) ) ;
#93 = APPROVAL_STATUS ( 'not_yet_approved' ) ;
#94 = DATE_TIME_ROLE ( 'creation_date' ) ;
#95 = DIRECTION ( 'NONE',  ( 1.000000000000000000, 0.0000000000000000000, 0.0000000000000000000 ) ) ;
#96 = PERSON_AND_ORGANIZATION ( #13, #255 ) ;
#97 = LOCAL_TIME ( 7, 44, 59.00000000000000000, #258 ) ;
#98 = ORIENTED_EDGE ( 'NONE', *, *, #294, .T. ) ;
#99 = EDGE_CURVE ( 'NONE', #137, #137, #19, .T. ) ;
#100 = EDGE_LOOP ( 'NONE', ( #143 ) ) ;
#101 = FACE_BOUND ( 'NONE', #124, .T. ) ;
#102 = CIRCLE ( 'NONE', #262, 0.9649999999999984146 ) ;
#103 = CARTESIAN_POINT ( 'NONE',  ( 0.0000000000000000000, 0.0000000000000000000, 0.0000000000000000000 ) ) ;
#104 = CONICAL_SURFACE ( 'NONE', #246, 1.200000000000001732, 0.7853981633974453924 ) ;
#105 = DIRECTION ( 'NONE',  ( -3.491481338843133355E-15, 1.224646799147353207E-16, -1.000000000000000000 ) ) ;
#106 = EDGE_LOOP ( 'NONE', ( #8 ) ) ;
#107 = CONICAL_SURFACE ( 'NONE', #136, 0.9649999999999984146, 0.5235987755982925984 ) ;
#108 = DIRECTION ( 'NONE',  ( 4.275831445896958607E-31, 1.000000000000000000, 1.224646799147353207E-16 ) ) ;
#109 = FACE_OUTER_BOUND ( 'NONE', #7, .T. ) ;
#110 = DIRECTION ( 'NONE',  ( -3.443772810705834062E-31, -1.000000000000000000, -1.454003807535322494E-16 ) ) ;
#111 = LOCAL_TIME ( 7, 44, 59.00000000000000000, #191 ) ;
#112 = CARTESIAN_POINT ( 'NONE',  ( 7.405122260397474650E-14, -2.597367247133959411E-15, 21.20911310054741961 ) ) ;
#113 = DIRECTION ( 'NONE',  ( 3.491481338843133355E-15, -1.224646799147353207E-16, 1.000000000000000000 ) ) ;
#114 = DIRECTION ( 'NONE',  ( 0.0000000000000000000, 1.000000000000000000, 0.0000000000000000000 ) ) ;
#115 = CC_DESIGN_PERSON_AND_ORGANIZATION_ASSIGNMENT ( #4, #168, ( #132 ) ) ;
#116 = APPROVAL_DATE_TIME ( #33, #290 ) ;
#117 = AXIS2_PLACEMENT_3D ( 'NONE', #74, #26, #95 ) ;
#118 = EDGE_LOOP ( 'NONE', ( #57 ) ) ;
#119 = PERSON_AND_ORGANIZATION ( #13, #255 ) ;
#120 = APPROVAL_STATUS ( 'not_yet_approved' ) ;
#121 = ADVANCED_FACE ( 'NONE', ( #146, #63 ), #35, .T. ) ;
#122 = APPROVAL_ROLE ( '' ) ;
#123 = LOCAL_TIME ( 7, 44, 59.00000000000000000, #53 ) ;
#124 = EDGE_LOOP ( 'NONE', ( #189 ) ) ;
#125 = ORIENTED_EDGE ( 'NONE', *, *, #266, .F. ) ;
#126 = AXIS2_PLACEMENT_3D ( 'NONE', #70, #113, #110 ) ;
#127 = EDGE_CURVE ( 'NONE', #302, #302, #153, .T. ) ;
#128 = CARTESIAN_POINT ( 'NONE',  ( 0.0000000000000000000, 0.0000000000000000000, 0.0000000000000000000 ) ) ;
#129 = EDGE_LOOP ( 'NONE', ( #276 ) ) ;
#130 = EDGE_CURVE ( 'NONE', #256, #256, #80, .T. ) ;
#131 = ORIENTED_EDGE ( 'NONE', *, *, #231, .F. ) ;
#132 = SECURITY_CLASSIFICATION ( '', '', #22 ) ;
#133 = CARTESIAN_POINT ( 'NONE',  ( -3.029045094772197439E-31, 1.062445999214439688E-32, -8.675529956507916537E-17 ) ) ;
#134 = CARTESIAN_POINT ( 'NONE',  ( 1.745740669421566678E-13, 1.199999999999995515, 50.00000000000000000 ) ) ;
#135 = DIRECTION ( 'NONE',  ( 0.0000000000000000000, -1.000000000000000000, 0.0000000000000000000 ) ) ;
#136 = AXIS2_PLACEMENT_3D ( 'NONE', #254, #92, #156 ) ;
#137 = VERTEX_POINT ( 'NONE', #71 ) ;
#138 = CARTESIAN_POINT ( 'NONE',  ( 1.745740669421566678E-13, -6.123233995736766085E-15, 50.00000000000000000 ) ) ;
#139 = PERSON_AND_ORGANIZATION_ROLE ( 'design_supplier' ) ;
#140 = APPROVAL_STATUS ( 'not_yet_approved' ) ;
#141 = APPLICATION_PROTOCOL_DEFINITION ( 'international standard', 'config_control_design', 1994, #178 ) ;
#142 = APPLICATION_PROTOCOL_DEFINITION ( 'international standard', 'config_control_design', 1994, #28 ) ;
#143 = ORIENTED_EDGE ( 'NONE', *, *, #99, .F. ) ;
#144 = COORDINATED_UNIVERSAL_TIME_OFFSET ( 1, 0, .AHEAD. ) ;
#145 = CIRCLE ( 'NONE', #50, 1.118499999999999828 ) ;
#146 = FACE_OUTER_BOUND ( 'NONE', #249, .T. ) ;
#147 = DIRECTION ( 'NONE',  ( 4.275831445896958607E-31, 1.000000000000000000, 1.224646799147353454E-16 ) ) ;
#148 = APPROVAL_PERSON_ORGANIZATION ( #257, #9, #122 ) ;
#149 = ADVANCED_FACE ( 'NONE', ( #280, #109 ), #176, .T. ) ;
#150 = DIRECTION ( 'NONE',  ( -3.491481338843133355E-15, 1.224646799147353207E-16, -1.000000000000000000 ) ) ;
#151 = DIRECTION ( 'NONE',  ( -3.491481338843133355E-15, 1.224646799147353207E-16, -1.000000000000000000 ) ) ;
#152 = PLANE ( 'NONE',  #58 ) ;
#153 = CIRCLE ( 'NONE', #199, 0.9953844939755798205 ) ;
#154 = VERTEX_POINT ( 'NONE', #134 ) ;
#155 = CARTESIAN_POINT ( 'NONE',  ( 2.886013015238226509E-14, -1.012277099146737952E-15, 8.265869798961828607 ) ) ;
#156 = DIRECTION ( 'NONE',  ( 0.0000000000000000000, 1.000000000000000000, 0.0000000000000000000 ) ) ;
#157 = CC_DESIGN_APPROVAL ( #9, ( #132 ) ) ;
#158 = DIRECTION ( 'NONE',  ( 3.491481338843133355E-15, -1.224646799147353207E-16, 1.000000000000000000 ) ) ;
#159 = APPROVAL ( #93, 'UNSPECIFIED' ) ;
#160 = DATE_AND_TIME ( #49, #97 ) ;
#161 = CARTESIAN_POINT ( 'NONE',  ( 7.405122260397474650E-14, 1.499999999999994005, 21.20911310054741961 ) ) ;
#162 = ORIENTED_EDGE ( 'NONE', *, *, #294, .F. ) ;
#163 = EDGE_CURVE ( 'NONE', #88, #88, #219, .T. ) ;
#164 = AXIS2_PLACEMENT_3D ( 'NONE', #277, #252, #44 ) ;
#165 =( NAMED_UNIT ( * ) SI_UNIT ( $, .STERADIAN. ) SOLID_ANGLE_UNIT ( ) );
#166 = PERSON_AND_ORGANIZATION_ROLE ( 'creator' ) ;
#167 = EDGE_LOOP ( 'NONE', ( #218 ) ) ;
#168 = PERSON_AND_ORGANIZATION_ROLE ( 'classification_officer' ) ;
#169 = ORIENTED_EDGE ( 'NONE', *, *, #130, .F. ) ;
#170 = AXIS2_PLACEMENT_3D ( 'NONE', #253, #43, #233 ) ;
#171 = ORIENTED_EDGE ( 'NONE', *, *, #292, .F. ) ;
#172 = CC_DESIGN_PERSON_AND_ORGANIZATION_ASSIGNMENT ( #96, #139, ( #227 ) ) ;
#173 = CARTESIAN_POINT ( 'NONE',  ( 0.0000000000000000000, 0.0000000000000000000, 0.0000000000000000000 ) ) ;
#174 = DIRECTION ( 'NONE',  ( 0.0000000000000000000, 1.000000000000000000, 0.0000000000000000000 ) ) ;
#175 = CARTESIAN_POINT ( 'NONE',  ( 1.745740669421566678E-13, -6.123233995736766085E-15, 50.00000000000000000 ) ) ;
#176 = CONICAL_SURFACE ( 'NONE', #126, 1.118499999999998940, 0.5235987755982925984 ) ;
#177 = EDGE_LOOP ( 'NONE', ( #131 ) ) ;
#178 = APPLICATION_CONTEXT ( 'configuration controlled 3d designs of mechanical parts and assemblies' ) ;
#179 = CARTESIAN_POINT ( 'NONE',  ( 6.284666409917640040E-14, -2.168404344971008868E-15, 18.00000000000000000 ) ) ;
#180 = CARTESIAN_POINT ( 'NONE',  ( 1.735266225405037467E-13, 1.499999999999995559, 49.70000000000000284 ) ) ;
#181 = FACE_OUTER_BOUND ( 'NONE', #52, .T. ) ;
#182 = CARTESIAN_POINT ( 'NONE',  ( 2.793185071074506684E-14, -9.797174393178825657E-16, 8.000000000000000000 ) ) ;
#183 = CC_DESIGN_DATE_AND_TIME_ASSIGNMENT ( #48, #29, ( #132 ) ) ;
#184 = DIRECTION ( 'NONE',  ( -3.491481338843133355E-15, 1.224646799147353207E-16, -1.000000000000000000 ) ) ;
#185 = CIRCLE ( 'NONE', #301, 0.9741624327025943941 ) ;
#186 = DIRECTION ( 'NONE',  ( 0.0000000000000000000, 1.000000000000000000, 0.0000000000000000000 ) ) ;
#187 = CLOSED_SHELL ( 'NONE', ( #206, #149, #84, #68 ) ) ;
#188 = APPROVAL_DATE_TIME ( #160, #9 ) ;
#189 = ORIENTED_EDGE ( 'NONE', *, *, #284, .T. ) ;
#190 = AXIS2_PLACEMENT_3D ( 'NONE', #128, #275, #297 ) ;
#191 = COORDINATED_UNIVERSAL_TIME_OFFSET ( 1, 0, .AHEAD. ) ;
#192 = MANIFOLD_SOLID_BREP ( 'Corps-Déplacer/Copier1[1]', #265 ) ;
#193 = EDGE_LOOP ( 'NONE', ( #214 ) ) ;
#194 = CONICAL_SURFACE ( 'NONE', #222, 1.499999999999996669, 0.1745329251994264252 ) ;
#195 = PLANE ( 'NONE',  #215 ) ;
#196 = ADVANCED_FACE ( 'NONE', ( #209, #17 ), #194, .T. ) ;
#197 = FACE_OUTER_BOUND ( 'NONE', #177, .T. ) ;
#198 = CYLINDRICAL_SURFACE ( 'NONE', #251, 1.118499999999999162 ) ;
#199 = AXIS2_PLACEMENT_3D ( 'NONE', #83, #151, #224 ) ;
#200 = UNCERTAINTY_MEASURE_WITH_UNIT (LENGTH_MEASURE( 1.000000000000000082E-05 ), #216, 'distance_accuracy_value', 'NONE');
#201 = CYLINDRICAL_SURFACE ( 'NONE', #25, 1.499999999999999112 ) ;
#202 = CARTESIAN_POINT ( 'NONE',  ( 2.886013015238226509E-14, 0.9649999999999974154, 8.265869798961828607 ) ) ;
#203 = CARTESIAN_POINT ( 'NONE',  ( 2.793185071074506684E-14, -9.797174393178825657E-16, 8.000000000000000000 ) ) ;
#204 = CIRCLE ( 'NONE', #55, 1.499999999999996669 ) ;
#205 = DIRECTION ( 'NONE',  ( -3.491481338843133355E-15, 1.224646799147353207E-16, -1.000000000000000000 ) ) ;
#206 = ADVANCED_FACE ( 'NONE', ( #181 ), #90, .F. ) ;
#207 = ADVANCED_FACE ( 'NONE', ( #282, #1 ), #107, .T. ) ;
#208 = FACE_OUTER_BOUND ( 'NONE', #39, .T. ) ;
#209 = FACE_BOUND ( 'NONE', #264, .T. ) ;
#210 = APPROVAL_ROLE ( '' ) ;
#211 = AXIS2_PLACEMENT_3D ( 'NONE', #138, #21, #114 ) ;
#212 = AXIS2_PLACEMENT_3D ( 'NONE', #179, #247, #34 ) ;
#213 = CALENDAR_DATE ( 2021, 30, 11 ) ;
#214 = ORIENTED_EDGE ( 'NONE', *, *, #127, .T. ) ;
#215 = AXIS2_PLACEMENT_3D ( 'NONE', #289, #81, #64 ) ;
#216 =( LENGTH_UNIT ( ) NAMED_UNIT ( * ) SI_UNIT ( .MILLI., .METRE. ) );
#217 = APPROVAL_ROLE ( '' ) ;
#218 = ORIENTED_EDGE ( 'NONE', *, *, #220, .T. ) ;
#219 = CIRCLE ( 'NONE', #72, 1.118499999999999828 ) ;
#220 = EDGE_CURVE ( 'NONE', #40, #40, #102, .T. ) ;
#221 = ORIENTED_EDGE ( 'NONE', *, *, #127, .F. ) ;
#222 = AXIS2_PLACEMENT_3D ( 'NONE', #20, #158, #135 ) ;
#223 = EDGE_LOOP ( 'NONE', ( #239 ) ) ;
#224 = DIRECTION ( 'NONE',  ( 0.0000000000000000000, 1.000000000000000000, 0.0000000000000000000 ) ) ;
#225 = FACE_OUTER_BOUND ( 'NONE', #100, .T. ) ;
#226 = DIRECTION ( 'NONE',  ( -3.491481338843133355E-15, 1.224646799147353207E-16, -1.000000000000000000 ) ) ;
#227 = PRODUCT_DEFINITION_FORMATION_WITH_SPECIFIED_SOURCE ( 'ANY', '', #281, .NOT_KNOWN. ) ;
#228 = LOCAL_TIME ( 7, 44, 59.00000000000000000, #144 ) ;
#229 = CC_DESIGN_PERSON_AND_ORGANIZATION_ASSIGNMENT ( #24, #166, ( #227 ) ) ;
#230 = DIRECTION ( 'NONE',  ( -4.275831445896958607E-31, -1.000000000000000000, -1.224646799147353207E-16 ) ) ;
#231 = EDGE_CURVE ( 'NONE', #234, #234, #145, .T. ) ;
#232 = VERTEX_POINT ( 'NONE', #23 ) ;
#233 = DIRECTION ( 'NONE',  ( 3.443772810705834062E-31, 1.000000000000000000, 1.454003807535322494E-16 ) ) ;
#234 = VERTEX_POINT ( 'NONE', #299 ) ;
#235 = DIRECTION ( 'NONE',  ( 0.0000000000000000000, 1.000000000000000000, 0.0000000000000000000 ) ) ;
#236 = COORDINATED_UNIVERSAL_TIME_OFFSET ( 1, 0, .AHEAD. ) ;
#237 = DESIGN_CONTEXT ( 'detailed design', #28, 'design' ) ;
#238 = DATE_AND_TIME ( #213, #228 ) ;
#239 = ORIENTED_EDGE ( 'NONE', *, *, #130, .T. ) ;
#240 = PRODUCT_DEFINITION ( 'UNKNOWN', '', #227, #237 ) ;
#241 = AXIS2_PLACEMENT_3D ( 'NONE', #59, #105, #174 ) ;
#242 = TOROIDAL_SURFACE ( 'NONE', #212, 2.964999999999999858, 2.000000000000000888 ) ;
#243 = EDGE_LOOP ( 'NONE', ( #162 ) ) ;
#244 = EDGE_LOOP ( 'NONE', ( #261 ) ) ;
#245 = FACE_OUTER_BOUND ( 'NONE', #30, .T. ) ;
#246 = AXIS2_PLACEMENT_3D ( 'NONE', #175, #273, #11 ) ;
#247 = DIRECTION ( 'NONE',  ( -3.491481338843133355E-15, 1.224646799147353207E-16, -1.000000000000000000 ) ) ;
#248 = ADVANCED_BREP_SHAPE_REPRESENTATION ( '326980', ( #192, #298, #117 ), #54 ) ;
#249 = EDGE_LOOP ( 'NONE', ( #37 ) ) ;
#250 = CARTESIAN_POINT ( 'NONE',  ( 2.793185071074506684E-14, 1.118499999999998940, 8.000000000000000000 ) ) ;
#251 = AXIS2_PLACEMENT_3D ( 'NONE', #173, #293, #82 ) ;
#252 = DIRECTION ( 'NONE',  ( 3.491481338843133355E-15, -1.224646799147353207E-16, 1.000000000000000000 ) ) ;
#253 = CARTESIAN_POINT ( 'NONE',  ( 8.728703347107829444E-16, -3.061616997868381785E-17, 0.2499999999999998890 ) ) ;
#254 = CARTESIAN_POINT ( 'NONE',  ( 2.886013015238226509E-14, -1.012277099146737952E-15, 8.265869798961828607 ) ) ;
#255 = ORGANIZATION ( 'UNSPECIFIED', 'UNSPECIFIED', '' ) ;
#256 = VERTEX_POINT ( 'NONE', #180 ) ;
#257 = PERSON_AND_ORGANIZATION ( #13, #255 ) ;
#258 = COORDINATED_UNIVERSAL_TIME_OFFSET ( 1, 0, .AHEAD. ) ;
#259 = PRODUCT_RELATED_PRODUCT_CATEGORY ( 'detail', '', ( #281 ) ) ;
#260 = APPROVAL_DATE_TIME ( #263, #159 ) ;
#261 = ORIENTED_EDGE ( 'NONE', *, *, #231, .T. ) ;
#262 = AXIS2_PLACEMENT_3D ( 'NONE', #155, #279, #16 ) ;
#263 = DATE_AND_TIME ( #75, #111 ) ;
#264 = EDGE_LOOP ( 'NONE', ( #221 ) ) ;
#265 = CLOSED_SHELL ( 'NONE', ( #274, #207, #121, #46, #196, #78, #60, #41 ) ) ;
#266 = EDGE_CURVE ( 'NONE', #86, #86, #185, .T. ) ;
#267 = CALENDAR_DATE ( 2021, 30, 11 ) ;
#268 = CIRCLE ( 'NONE', #211, 1.200000000000001732 ) ;
#269 = ORIENTED_EDGE ( 'NONE', *, *, #266, .T. ) ;
#270 = PERSON_AND_ORGANIZATION ( #13, #255 ) ;
#271 = EDGE_LOOP ( 'NONE', ( #169 ) ) ;
#272 = FACE_OUTER_BOUND ( 'NONE', #193, .T. ) ;
#273 = DIRECTION ( 'NONE',  ( -3.491481338843133355E-15, 1.224646799147353207E-16, -1.000000000000000000 ) ) ;
#274 = ADVANCED_FACE ( 'NONE', ( #208 ), #283, .F. ) ;
#275 = DIRECTION ( 'NONE',  ( -3.491481338843133355E-15, 1.224646799147353207E-16, -1.000000000000000000 ) ) ;
#276 = ORIENTED_EDGE ( 'NONE', *, *, #163, .F. ) ;
#277 = CARTESIAN_POINT ( 'NONE',  ( 2.793185071074506684E-14, 8.387406584536421347E-33, 8.000000000000000000 ) ) ;
#278 = AXIS2_PLACEMENT_3D ( 'NONE', #12, #150, #300 ) ;
#279 = DIRECTION ( 'NONE',  ( -3.491481338843133355E-15, 1.224646799147353207E-16, -1.000000000000000000 ) ) ;
#280 = FACE_BOUND ( 'NONE', #85, .T. ) ;
#281 = PRODUCT ( '326980', '326980', '', ( #27 ) ) ;
#282 = FACE_OUTER_BOUND ( 'NONE', #129, .T. ) ;
#283 = PLANE ( 'NONE',  #164 ) ;
#284 = EDGE_CURVE ( 'NONE', #154, #154, #268, .T. ) ;
#285 = VERTEX_POINT ( 'NONE', #161 ) ;
#286 = LOCAL_TIME ( 7, 44, 59.00000000000000000, #236 ) ;
#287 = CC_DESIGN_PERSON_AND_ORGANIZATION_ASSIGNMENT ( #270, #6, ( #240 ) ) ;
#288 = SHAPE_DEFINITION_REPRESENTATION ( #89, #248 ) ;
#289 = CARTESIAN_POINT ( 'NONE',  ( 2.793185071074506684E-14, 8.387406584536421347E-33, 8.000000000000000000 ) ) ;
#290 = APPROVAL ( #120, 'UNSPECIFIED' ) ;
#291 = DIRECTION ( 'NONE',  ( -3.491481338843133355E-15, 1.224646799147353207E-16, -1.000000000000000000 ) ) ;
#292 = EDGE_CURVE ( 'NONE', #232, #232, #36, .T. ) ;
#293 = DIRECTION ( 'NONE',  ( -3.491481338843133355E-15, 1.224646799147353207E-16, -1.000000000000000000 ) ) ;
#294 = EDGE_CURVE ( 'NONE', #285, #285, #204, .T. ) ;
#295 = AXIS2_PLACEMENT_3D ( 'NONE', #133, #42, #230 ) ;
#296 = FACE_OUTER_BOUND ( 'NONE', #223, .T. ) ;
#297 = DIRECTION ( 'NONE',  ( 4.275831445896958607E-31, 1.000000000000000000, 1.224646799147353207E-16 ) ) ;
#298 = MANIFOLD_SOLID_BREP ( 'Corps-Déplacer/Copier1[2]', #187 ) ;
#299 = CARTESIAN_POINT ( 'NONE',  ( 2.793185071074506684E-14, 1.118499999999998940, 8.000000000000000000 ) ) ;
#300 = DIRECTION ( 'NONE',  ( 0.0000000000000000000, 1.000000000000000000, 0.0000000000000000000 ) ) ;
#301 = AXIS2_PLACEMENT_3D ( 'NONE', #18, #47, #69 ) ;
#302 = VERTEX_POINT ( 'NONE', #303 ) ;
#303 = CARTESIAN_POINT ( 'NONE',  ( 6.405924284287275164E-14, 0.9953844939755776000, 18.34729635533384595 ) ) ;
ENDSEC;
END-ISO-10303-21;
