ISO-10303-21;
HEADER;
FILE_DESCRIPTION (( 'STEP AP203' ),
    '1' );
FILE_NAME ('326979.step',
    '2021-11-30T08:32:41',
    ( '' ),
    ( '' ),
    'SwSTEP 2.0',
    'SolidWorks 2019',
    '' );
FILE_SCHEMA (( 'CONFIG_CONTROL_DESIGN' ));
ENDSEC;

DATA;
#1 = EDGE_LOOP ( 'NONE', ( #73 ) ) ;
#2 = EDGE_LOOP ( 'NONE', ( #261 ) ) ;
#3 = CONICAL_SURFACE ( 'NONE', #283, 0.9685000000000000275, 0.5235987755983001479 ) ;
#4 = CC_DESIGN_PERSON_AND_ORGANIZATION_ASSIGNMENT ( #147, #69, ( #199 ) ) ;
#5 = LOCAL_TIME ( 9, 32, 41.00000000000000000, #118 ) ;
#6 = UNCERTAINTY_MEASURE_WITH_UNIT (LENGTH_MEASURE( 1.000000000000000082E-05 ), #31, 'distance_accuracy_value', 'NONE');
#7 = DIRECTION ( 'NONE',  ( 0.0000000000000000000, 1.000000000000000000, 0.0000000000000000000 ) ) ;
#8 = CARTESIAN_POINT ( 'NONE',  ( 1.745740669421566678E-13, 8.998558695971067645E-33, 50.00000000000000000 ) ) ;
#9 = DIRECTION ( 'NONE',  ( 0.0000000000000000000, 1.000000000000000000, 0.0000000000000000000 ) ) ;
#10 = FACE_OUTER_BOUND ( 'NONE', #209, .T. ) ;
#11 = CIRCLE ( 'NONE', #278, 1.200000000000001732 ) ;
#12 = FACE_OUTER_BOUND ( 'NONE', #150, .T. ) ;
#13 = DIRECTION ( 'NONE',  ( 0.0000000000000000000, 1.000000000000000000, 0.0000000000000000000 ) ) ;
#14 = DIRECTION ( 'NONE',  ( 0.0000000000000000000, -1.000000000000000000, 0.0000000000000000000 ) ) ;
#15 = CLOSED_SHELL ( 'NONE', ( #284, #166, #56, #249, #71, #153, #43, #112 ) ) ;
#16 = VERTEX_POINT ( 'NONE', #111 ) ;
#17 = VERTEX_POINT ( 'NONE', #275 ) ;
#18 = EDGE_CURVE ( 'NONE', #148, #148, #21, .T. ) ;
#19 = DIRECTION ( 'NONE',  ( 1.000000000000000000, 0.0000000000000000000, 0.0000000000000000000 ) ) ;
#20 = APPROVAL ( #188, 'UNSPECIFIED' ) ;
#21 = CIRCLE ( 'NONE', #95, 0.8149999999999997247 ) ;
#22 = LOCAL_TIME ( 9, 32, 41.00000000000000000, #206 ) ;
#23 = DATE_AND_TIME ( #51, #248 ) ;
#24 = DIRECTION ( 'NONE',  ( -4.275831445896958607E-31, -1.000000000000000000, -1.224646799147353207E-16 ) ) ;
#25 = MECHANICAL_CONTEXT ( 'NONE', #212, 'mechanical' ) ;
#26 = ORIENTED_EDGE ( 'NONE', *, *, #97, .T. ) ;
#27 = CC_DESIGN_PERSON_AND_ORGANIZATION_ASSIGNMENT ( #94, #144, ( #182 ) ) ;
#28 = ORIENTED_EDGE ( 'NONE', *, *, #37, .F. ) ;
#29 = AXIS2_PLACEMENT_3D ( 'NONE', #59, #264, #163 ) ;
#30 = MANIFOLD_SOLID_BREP ( 'Corps-Déplacer/Copier1[2]', #301 ) ;
#31 =( LENGTH_UNIT ( ) NAMED_UNIT ( * ) SI_UNIT ( .MILLI., .METRE. ) );
#32 = DIRECTION ( 'NONE',  ( 0.0000000000000000000, 1.000000000000000000, 0.0000000000000000000 ) ) ;
#33 = DESIGN_CONTEXT ( 'detailed design', #186, 'design' ) ;
#34 = MANIFOLD_SOLID_BREP ( 'Corps-Déplacer/Copier1[1]', #15 ) ;
#35 = ORIENTED_EDGE ( 'NONE', *, *, #132, .F. ) ;
#36 = DIRECTION ( 'NONE',  ( -3.491481338843133355E-15, 1.224646799147353207E-16, -1.000000000000000000 ) ) ;
#37 = EDGE_CURVE ( 'NONE', #138, #138, #165, .T. ) ;
#38 = CARTESIAN_POINT ( 'NONE',  ( 7.702139880005218808E-14, -2.701547004045824649E-15, 22.05980537349010717 ) ) ;
#39 = AXIS2_PLACEMENT_3D ( 'NONE', #61, #81, #181 ) ;
#40 = AXIS2_PLACEMENT_3D ( 'NONE', #230, #228, #19 ) ;
#41 = FACE_OUTER_BOUND ( 'NONE', #128, .T. ) ;
#42 = CARTESIAN_POINT ( 'NONE',  ( 2.793185071074506684E-14, -9.797174393178825657E-16, 8.000000000000000000 ) ) ;
#43 = ADVANCED_FACE ( 'NONE', ( #54, #157 ), #135, .T. ) ;
#44 = ADVANCED_FACE ( 'NONE', ( #58, #12 ), #217, .T. ) ;
#45 = FACE_OUTER_BOUND ( 'NONE', #210, .T. ) ;
#46 = PERSON_AND_ORGANIZATION_ROLE ( 'creator' ) ;
#47 = ADVANCED_BREP_SHAPE_REPRESENTATION ( '326979', ( #34, #30, #40 ), #117 ) ;
#48 = APPROVAL_DATE_TIME ( #66, #20 ) ;
#49 = FACE_OUTER_BOUND ( 'NONE', #235, .T. ) ;
#50 = CC_DESIGN_APPROVAL ( #242, ( #279 ) ) ;
#51 = CALENDAR_DATE ( 2021, 30, 11 ) ;
#52 =( NAMED_UNIT ( * ) SI_UNIT ( $, .STERADIAN. ) SOLID_ANGLE_UNIT ( ) );
#53 = ORIENTED_EDGE ( 'NONE', *, *, #76, .T. ) ;
#54 = FACE_OUTER_BOUND ( 'NONE', #229, .T. ) ;
#55 = CARTESIAN_POINT ( 'NONE',  ( 7.702139880005218808E-14, -2.701547004045824649E-15, 22.05980537349010717 ) ) ;
#56 = ADVANCED_FACE ( 'NONE', ( #291, #131 ), #240, .T. ) ;
#57 = EDGE_LOOP ( 'NONE', ( #127 ) ) ;
#58 = FACE_BOUND ( 'NONE', #1, .T. ) ;
#59 = CARTESIAN_POINT ( 'NONE',  ( 8.728703347107829444E-16, -3.061616997868381785E-17, 0.2499999999999998890 ) ) ;
#60 = ORGANIZATION ( 'UNSPECIFIED', 'UNSPECIFIED', '' ) ;
#61 = CARTESIAN_POINT ( 'NONE',  ( 0.0000000000000000000, 0.0000000000000000000, 0.0000000000000000000 ) ) ;
#62 = DIRECTION ( 'NONE',  ( -3.491481338843133355E-15, 1.224646799147353207E-16, -1.000000000000000000 ) ) ;
#63 = FACE_OUTER_BOUND ( 'NONE', #281, .T. ) ;
#64 = CIRCLE ( 'NONE', #205, 0.8453844939755803534 ) ;
#65 = AXIS2_PLACEMENT_3D ( 'NONE', #223, #114, #24 ) ;
#66 = DATE_AND_TIME ( #143, #22 ) ;
#67 = CARTESIAN_POINT ( 'NONE',  ( 6.284666409917640040E-14, -2.168404344971008868E-15, 18.00000000000000000 ) ) ;
#68 = CIRCLE ( 'NONE', #231, 1.500000000000001554 ) ;
#69 = PERSON_AND_ORGANIZATION_ROLE ( 'creator' ) ;
#70 = DIRECTION ( 'NONE',  ( -3.491481338843133355E-15, 1.224646799147353207E-16, -1.000000000000000000 ) ) ;
#71 = ADVANCED_FACE ( 'NONE', ( #201, #41 ), #260, .T. ) ;
#72 = VERTEX_POINT ( 'NONE', #257 ) ;
#73 = ORIENTED_EDGE ( 'NONE', *, *, #98, .F. ) ;
#74 = EDGE_CURVE ( 'NONE', #208, #208, #155, .T. ) ;
#75 =( NAMED_UNIT ( * ) PLANE_ANGLE_UNIT ( ) SI_UNIT ( $, .RADIAN. ) );
#76 = EDGE_CURVE ( 'NONE', #16, #16, #77, .T. ) ;
#77 = CIRCLE ( 'NONE', #29, 0.9684999999999991394 ) ;
#78 = ORIENTED_EDGE ( 'NONE', *, *, #256, .F. ) ;
#79 = EDGE_LOOP ( 'NONE', ( #218 ) ) ;
#80 = CC_DESIGN_PERSON_AND_ORGANIZATION_ASSIGNMENT ( #141, #113, ( #192 ) ) ;
#81 = DIRECTION ( 'NONE',  ( -3.491481338843133355E-15, 1.224646799147353207E-16, -1.000000000000000000 ) ) ;
#82 = AXIS2_PLACEMENT_3D ( 'NONE', #288, #62, #129 ) ;
#83 = LOCAL_TIME ( 9, 32, 41.00000000000000000, #225 ) ;
#84 = ORIENTED_EDGE ( 'NONE', *, *, #98, .T. ) ;
#85 = FACE_OUTER_BOUND ( 'NONE', #152, .T. ) ;
#86 = DIRECTION ( 'NONE',  ( -3.491481338843133355E-15, 1.224646799147353207E-16, -1.000000000000000000 ) ) ;
#87 = DIRECTION ( 'NONE',  ( 0.0000000000000000000, 1.000000000000000000, 0.0000000000000000000 ) ) ;
#88 = DIRECTION ( 'NONE',  ( -3.491481338843133355E-15, 1.224646799147353207E-16, -1.000000000000000000 ) ) ;
#89 = CALENDAR_DATE ( 2021, 30, 11 ) ;
#90 = PLANE ( 'NONE',  #65 ) ;
#91 = PERSON_AND_ORGANIZATION ( #220, #60 ) ;
#92 = PERSON_AND_ORGANIZATION ( #220, #60 ) ;
#93 = DIRECTION ( 'NONE',  ( 0.0000000000000000000, 1.000000000000000000, 0.0000000000000000000 ) ) ;
#94 = PERSON_AND_ORGANIZATION ( #220, #60 ) ;
#95 = AXIS2_PLACEMENT_3D ( 'NONE', #198, #239, #32 ) ;
#96 = ORIENTED_EDGE ( 'NONE', *, *, #132, .T. ) ;
#97 = EDGE_CURVE ( 'NONE', #300, #300, #64, .T. ) ;
#98 = EDGE_CURVE ( 'NONE', #247, #247, #253, .T. ) ;
#99 = ORIENTED_EDGE ( 'NONE', *, *, #134, .T. ) ;
#100 = EDGE_LOOP ( 'NONE', ( #78 ) ) ;
#101 = PRODUCT_DEFINITION_SHAPE ( 'NONE', 'NONE',  #199 ) ;
#102 = DIRECTION ( 'NONE',  ( -3.491481338843133355E-15, 1.224646799147353207E-16, -1.000000000000000000 ) ) ;
#103 = FACE_OUTER_BOUND ( 'NONE', #176, .T. ) ;
#104 = CIRCLE ( 'NONE', #161, 0.8149999999999998357 ) ;
#105 = CIRCLE ( 'NONE', #172, 0.9685000000000000275 ) ;
#106 = EDGE_CURVE ( 'NONE', #17, #17, #68, .T. ) ;
#107 = CARTESIAN_POINT ( 'NONE',  ( 0.0000000000000000000, 0.0000000000000000000, 0.0000000000000000000 ) ) ;
#108 = CARTESIAN_POINT ( 'NONE',  ( 1.745740669421566678E-13, -6.123233995736766085E-15, 50.00000000000000000 ) ) ;
#109 = CYLINDRICAL_SURFACE ( 'NONE', #39, 0.9684999999999994724 ) ;
#110 = AXIS2_PLACEMENT_3D ( 'NONE', #8, #243, #136 ) ;
#111 = CARTESIAN_POINT ( 'NONE',  ( 8.728703347107833388E-16, 0.9684999999999991394, 0.2500000000000000000 ) ) ;
#112 = ADVANCED_FACE ( 'NONE', ( #285 ), #222, .F. ) ;
#113 = PERSON_AND_ORGANIZATION_ROLE ( 'design_owner' ) ;
#114 = DIRECTION ( 'NONE',  ( 3.491481338843133355E-15, -1.224646799147353207E-16, 1.000000000000000000 ) ) ;
#115 = DATE_TIME_ROLE ( 'creation_date' ) ;
#116 = CARTESIAN_POINT ( 'NONE',  ( 7.702139880005218808E-14, 1.499999999999994005, 22.05980537349010717 ) ) ;
#117 =( GEOMETRIC_REPRESENTATION_CONTEXT ( 3 ) GLOBAL_UNCERTAINTY_ASSIGNED_CONTEXT ( ( #6 ) ) GLOBAL_UNIT_ASSIGNED_CONTEXT ( ( #31, #75, #52 ) ) REPRESENTATION_CONTEXT ( 'NONE', 'WORKASPACE' ) );
#118 = COORDINATED_UNIVERSAL_TIME_OFFSET ( 1, 0, .AHEAD. ) ;
#119 = DIRECTION ( 'NONE',  ( -4.275831445896958607E-31, -1.000000000000000000, -1.224646799147353207E-16 ) ) ;
#120 = CC_DESIGN_PERSON_AND_ORGANIZATION_ASSIGNMENT ( #91, #46, ( #279 ) ) ;
#121 = CARTESIAN_POINT ( 'NONE',  ( -1.892735826383162232E-31, 0.8241624327025948160, -5.421010862427523403E-17 ) ) ;
#122 = COORDINATED_UNIVERSAL_TIME_OFFSET ( 1, 0, .AHEAD. ) ;
#123 = APPROVAL_PERSON_ORGANIZATION ( #246, #271, #236 ) ;
#124 = EDGE_LOOP ( 'NONE', ( #28 ) ) ;
#125 = CALENDAR_DATE ( 2021, 30, 11 ) ;
#126 = APPROVAL_DATE_TIME ( #169, #271 ) ;
#127 = ORIENTED_EDGE ( 'NONE', *, *, #74, .F. ) ;
#128 = EDGE_LOOP ( 'NONE', ( #211 ) ) ;
#129 = DIRECTION ( 'NONE',  ( 0.0000000000000000000, 1.000000000000000000, 0.0000000000000000000 ) ) ;
#130 = CARTESIAN_POINT ( 'NONE',  ( 1.745740669421566678E-13, -6.123233995736766085E-15, 50.00000000000000000 ) ) ;
#131 = FACE_OUTER_BOUND ( 'NONE', #287, .T. ) ;
#132 = EDGE_CURVE ( 'NONE', #294, #294, #104, .T. ) ;
#133 = DIRECTION ( 'NONE',  ( -3.491481338843133355E-15, 1.224646799147353207E-16, -1.000000000000000000 ) ) ;
#134 = EDGE_CURVE ( 'NONE', #282, #282, #11, .T. ) ;
#135 = CONICAL_SURFACE ( 'NONE', #241, 1.200000000000001732, 0.7853981633974453924 ) ;
#136 = DIRECTION ( 'NONE',  ( 4.275831445896958607E-31, 1.000000000000000000, 1.224646799147353207E-16 ) ) ;
#137 = DIRECTION ( 'NONE',  ( -3.491481338843133355E-15, 1.224646799147353207E-16, -1.000000000000000000 ) ) ;
#138 = VERTEX_POINT ( 'NONE', #116 ) ;
#139 = ADVANCED_FACE ( 'NONE', ( #10, #103 ), #109, .T. ) ;
#140 = CC_DESIGN_APPROVAL ( #20, ( #199 ) ) ;
#141 = PERSON_AND_ORGANIZATION ( #220, #60 ) ;
#142 = CARTESIAN_POINT ( 'NONE',  ( -2.708357736329926726E-31, 9.499640155148007782E-33, -7.757044857147404898E-17 ) ) ;
#143 = CALENDAR_DATE ( 2021, 30, 11 ) ;
#144 = PERSON_AND_ORGANIZATION_ROLE ( 'classification_officer' ) ;
#145 = AXIS2_PLACEMENT_3D ( 'NONE', #142, #273, #119 ) ;
#146 = LOCAL_TIME ( 9, 32, 41.00000000000000000, #122 ) ;
#147 = PERSON_AND_ORGANIZATION ( #220, #60 ) ;
#148 = VERTEX_POINT ( 'NONE', #251 ) ;
#149 = APPROVAL_DATE_TIME ( #23, #242 ) ;
#150 = EDGE_LOOP ( 'NONE', ( #53 ) ) ;
#151 = ORIENTED_EDGE ( 'NONE', *, *, #76, .F. ) ;
#152 = EDGE_LOOP ( 'NONE', ( #84 ) ) ;
#153 = ADVANCED_FACE ( 'NONE', ( #177, #262 ), #158, .T. ) ;
#154 = ORIENTED_EDGE ( 'NONE', *, *, #18, .T. ) ;
#155 = CIRCLE ( 'NONE', #82, 0.9685000000000000275 ) ;
#156 = CC_DESIGN_SECURITY_CLASSIFICATION ( #182, ( #279 ) ) ;
#157 = FACE_BOUND ( 'NONE', #178, .T. ) ;
#158 = CYLINDRICAL_SURFACE ( 'NONE', #266, 1.499999999999999112 ) ;
#159 = DIRECTION ( 'NONE',  ( -3.977139792229711390E-31, -1.000000000000000000, -1.119465330392881256E-16 ) ) ;
#160 = CARTESIAN_POINT ( 'NONE',  ( 1.735266225405037467E-13, -6.086494591762345225E-15, 49.70000000000000284 ) ) ;
#161 = AXIS2_PLACEMENT_3D ( 'NONE', #221, #102, #13 ) ;
#162 = DIRECTION ( 'NONE',  ( 4.275831445896958607E-31, 1.000000000000000000, 1.224646799147353454E-16 ) ) ;
#163 = DIRECTION ( 'NONE',  ( 3.977139792229711390E-31, 1.000000000000000000, 1.119465330392881256E-16 ) ) ;
#164 = SECURITY_CLASSIFICATION_LEVEL ( 'unclassified' ) ;
#165 = CIRCLE ( 'NONE', #272, 1.499999999999996669 ) ;
#166 = ADVANCED_FACE ( 'NONE', ( #244, #200 ), #3, .T. ) ;
#167 = APPROVAL_STATUS ( 'not_yet_approved' ) ;
#168 = CALENDAR_DATE ( 2021, 30, 11 ) ;
#169 = DATE_AND_TIME ( #125, #5 ) ;
#170 = APPROVAL_STATUS ( 'not_yet_approved' ) ;
#171 = DIRECTION ( 'NONE',  ( -4.275831445896958607E-31, -1.000000000000000000, -1.224646799147353207E-16 ) ) ;
#172 = AXIS2_PLACEMENT_3D ( 'NONE', #173, #226, #93 ) ;
#173 = CARTESIAN_POINT ( 'NONE',  ( 2.793185071074506684E-14, -9.797174393178825657E-16, 8.000000000000000000 ) ) ;
#174 = EDGE_LOOP ( 'NONE', ( #213 ) ) ;
#175 = APPLICATION_PROTOCOL_DEFINITION ( 'international standard', 'config_control_design', 1994, #212 ) ;
#176 = EDGE_LOOP ( 'NONE', ( #234 ) ) ;
#177 = FACE_OUTER_BOUND ( 'NONE', #124, .T. ) ;
#178 = EDGE_LOOP ( 'NONE', ( #99 ) ) ;
#179 = PLANE ( 'NONE',  #145 ) ;
#180 = CARTESIAN_POINT ( 'NONE',  ( -5.416715472659853451E-31, 1.899928031029601556E-32, -1.551408971429480980E-16 ) ) ;
#181 = DIRECTION ( 'NONE',  ( 4.275831445896958607E-31, 1.000000000000000000, 1.224646799147353207E-16 ) ) ;
#182 = SECURITY_CLASSIFICATION ( '', '', #164 ) ;
#183 = CARTESIAN_POINT ( 'NONE',  ( 6.405924284287273902E-14, -2.246895775456748746E-15, 18.34729635533384240 ) ) ;
#184 = DATE_AND_TIME ( #89, #146 ) ;
#185 = CARTESIAN_POINT ( 'NONE',  ( 2.793185071074506684E-14, 0.9684999999999991394, 8.000000000000000000 ) ) ;
#186 = APPLICATION_CONTEXT ( 'configuration controlled 3d designs of mechanical parts and assemblies' ) ;
#187 = PERSON_AND_ORGANIZATION_ROLE ( 'design_supplier' ) ;
#188 = APPROVAL_STATUS ( 'not_yet_approved' ) ;
#189 = DIRECTION ( 'NONE',  ( 3.491481338843133355E-15, -1.224646799147353207E-16, 1.000000000000000000 ) ) ;
#190 = APPROVAL_PERSON_ORGANIZATION ( #92, #20, #277 ) ;
#191 = ADVANCED_FACE ( 'NONE', ( #85 ), #179, .F. ) ;
#192 = PRODUCT ( '326979', '326979', '', ( #25 ) ) ;
#193 = AXIS2_PLACEMENT_3D ( 'NONE', #107, #36, #219 ) ;
#194 = AXIS2_PLACEMENT_3D ( 'NONE', #224, #189, #171 ) ;
#195 = ORIENTED_EDGE ( 'NONE', *, *, #106, .F. ) ;
#196 = CARTESIAN_POINT ( 'NONE',  ( 8.728703347107829444E-16, -3.061616997868381785E-17, 0.2499999999999998890 ) ) ;
#197 = AXIS2_PLACEMENT_3D ( 'NONE', #180, #88, #292 ) ;
#198 = CARTESIAN_POINT ( 'NONE',  ( 6.284666409917640040E-14, -2.204364238465235428E-15, 18.00000000000000000 ) ) ;
#199 = PRODUCT_DEFINITION ( 'UNKNOWN', '', #279, #33 ) ;
#200 = FACE_OUTER_BOUND ( 'NONE', #57, .T. ) ;
#201 = FACE_BOUND ( 'NONE', #174, .T. ) ;
#202 = DIRECTION ( 'NONE',  ( 0.0000000000000000000, 1.000000000000000000, 0.0000000000000000000 ) ) ;
#203 = CC_DESIGN_DATE_AND_TIME_ASSIGNMENT ( #184, #270, ( #182 ) ) ;
#204 = DIRECTION ( 'NONE',  ( 0.0000000000000000000, 1.000000000000000000, 0.0000000000000000000 ) ) ;
#205 = AXIS2_PLACEMENT_3D ( 'NONE', #183, #86, #87 ) ;
#206 = COORDINATED_UNIVERSAL_TIME_OFFSET ( 1, 0, .AHEAD. ) ;
#207 = PERSON_AND_ORGANIZATION ( #220, #60 ) ;
#208 = VERTEX_POINT ( 'NONE', #185 ) ;
#209 = EDGE_LOOP ( 'NONE', ( #151 ) ) ;
#210 = EDGE_LOOP ( 'NONE', ( #26 ) ) ;
#211 = ORIENTED_EDGE ( 'NONE', *, *, #37, .T. ) ;
#212 = APPLICATION_CONTEXT ( 'configuration controlled 3d designs of mechanical parts and assemblies' ) ;
#213 = ORIENTED_EDGE ( 'NONE', *, *, #97, .F. ) ;
#214 = DIRECTION ( 'NONE',  ( 0.0000000000000000000, 1.000000000000000000, 0.0000000000000000000 ) ) ;
#215 = DIRECTION ( 'NONE',  ( -3.491481338843133355E-15, 1.224646799147353207E-16, -1.000000000000000000 ) ) ;
#216 = DIRECTION ( 'NONE',  ( -3.491481338843133355E-15, 1.224646799147353207E-16, -1.000000000000000000 ) ) ;
#217 = CONICAL_SURFACE ( 'NONE', #295, 0.9684999999999991394, 0.5235987755982922653 ) ;
#218 = ORIENTED_EDGE ( 'NONE', *, *, #106, .T. ) ;
#219 = DIRECTION ( 'NONE',  ( 4.275831445896958607E-31, 1.000000000000000000, 1.224646799147353207E-16 ) ) ;
#220 = PERSON ( 'UNSPECIFIED', 'UNSPECIFIED', 'UNSPECIFIED', ('UNSPECIFIED'), ('UNSPECIFIED'), ('UNSPECIFIED') ) ;
#221 = CARTESIAN_POINT ( 'NONE',  ( 2.886013015238223984E-14, -1.012277099146737164E-15, 8.265869798961823278 ) ) ;
#222 = PLANE ( 'NONE',  #110 ) ;
#223 = CARTESIAN_POINT ( 'NONE',  ( 2.793185071074506684E-14, 7.262586747540030878E-33, 8.000000000000000000 ) ) ;
#224 = CARTESIAN_POINT ( 'NONE',  ( 2.793185071074506684E-14, 7.262586747540030878E-33, 8.000000000000000000 ) ) ;
#225 = COORDINATED_UNIVERSAL_TIME_OFFSET ( 1, 0, .AHEAD. ) ;
#226 = DIRECTION ( 'NONE',  ( -3.491481338843133355E-15, 1.224646799147353207E-16, -1.000000000000000000 ) ) ;
#227 = APPROVAL_ROLE ( '' ) ;
#228 = DIRECTION ( 'NONE',  ( 0.0000000000000000000, 0.0000000000000000000, 1.000000000000000000 ) ) ;
#229 = EDGE_LOOP ( 'NONE', ( #195 ) ) ;
#230 = CARTESIAN_POINT ( 'NONE',  ( 0.0000000000000000000, 0.0000000000000000000, 0.0000000000000000000 ) ) ;
#231 = AXIS2_PLACEMENT_3D ( 'NONE', #160, #245, #214 ) ;
#232 = ADVANCED_FACE ( 'NONE', ( #298 ), #90, .T. ) ;
#233 = CARTESIAN_POINT ( 'NONE',  ( 1.745740669421566678E-13, 1.199999999999995515, 50.00000000000000000 ) ) ;
#234 = ORIENTED_EDGE ( 'NONE', *, *, #256, .T. ) ;
#235 = EDGE_LOOP ( 'NONE', ( #237 ) ) ;
#236 = APPROVAL_ROLE ( '' ) ;
#237 = ORIENTED_EDGE ( 'NONE', *, *, #18, .F. ) ;
#238 = DIRECTION ( 'NONE',  ( -3.491481338843133355E-15, 1.224646799147353207E-16, -1.000000000000000000 ) ) ;
#239 = DIRECTION ( 'NONE',  ( -3.491481338843133355E-15, 1.224646799147353207E-16, -1.000000000000000000 ) ) ;
#240 = CYLINDRICAL_SURFACE ( 'NONE', #193, 0.8149999999999997247 ) ;
#241 = AXIS2_PLACEMENT_3D ( 'NONE', #130, #215, #9 ) ;
#242 = APPROVAL ( #170, 'UNSPECIFIED' ) ;
#243 = DIRECTION ( 'NONE',  ( -3.491481338843133355E-15, 1.224646799147353207E-16, -1.000000000000000000 ) ) ;
#244 = FACE_BOUND ( 'NONE', #258, .T. ) ;
#245 = DIRECTION ( 'NONE',  ( -3.491481338843133355E-15, 1.224646799147353207E-16, -1.000000000000000000 ) ) ;
#246 = PERSON_AND_ORGANIZATION ( #220, #60 ) ;
#247 = VERTEX_POINT ( 'NONE', #121 ) ;
#248 = LOCAL_TIME ( 9, 32, 41.00000000000000000, #274 ) ;
#249 = ADVANCED_FACE ( 'NONE', ( #49, #45 ), #267, .F. ) ;
#250 = SHAPE_DEFINITION_REPRESENTATION ( #101, #47 ) ;
#251 = CARTESIAN_POINT ( 'NONE',  ( 6.284666409917640040E-14, 0.8149999999999976152, 18.00000000000000000 ) ) ;
#252 = CC_DESIGN_PERSON_AND_ORGANIZATION_ASSIGNMENT ( #299, #187, ( #279 ) ) ;
#253 = CIRCLE ( 'NONE', #197, 0.8241624327025948160 ) ;
#254 = AXIS2_PLACEMENT_3D ( 'NONE', #67, #70, #276 ) ;
#255 = DATE_AND_TIME ( #168, #83 ) ;
#256 = EDGE_CURVE ( 'NONE', #72, #72, #105, .T. ) ;
#257 = CARTESIAN_POINT ( 'NONE',  ( 2.793185071074506684E-14, 0.9684999999999991394, 8.000000000000000000 ) ) ;
#258 = EDGE_LOOP ( 'NONE', ( #96 ) ) ;
#259 = ORIENTED_EDGE ( 'NONE', *, *, #74, .T. ) ;
#260 = CONICAL_SURFACE ( 'NONE', #302, 1.499999999999996669, 0.1745329251994260922 ) ;
#261 = ORIENTED_EDGE ( 'NONE', *, *, #134, .F. ) ;
#262 = FACE_OUTER_BOUND ( 'NONE', #79, .T. ) ;
#263 = EDGE_LOOP ( 'NONE', ( #154 ) ) ;
#264 = DIRECTION ( 'NONE',  ( -3.491481338843133355E-15, 1.224646799147353207E-16, -1.000000000000000000 ) ) ;
#265 = CC_DESIGN_DATE_AND_TIME_ASSIGNMENT ( #255, #115, ( #199 ) ) ;
#266 = AXIS2_PLACEMENT_3D ( 'NONE', #268, #238, #162 ) ;
#267 = TOROIDAL_SURFACE ( 'NONE', #254, 2.814999999999999947, 2.000000000000000000 ) ;
#268 = CARTESIAN_POINT ( 'NONE',  ( 0.0000000000000000000, 0.0000000000000000000, 0.0000000000000000000 ) ) ;
#269 = DIRECTION ( 'NONE',  ( 3.491481338843133355E-15, -1.224646799147353207E-16, 1.000000000000000000 ) ) ;
#270 = DATE_TIME_ROLE ( 'classification_date' ) ;
#271 = APPROVAL ( #167, 'UNSPECIFIED' ) ;
#272 = AXIS2_PLACEMENT_3D ( 'NONE', #38, #133, #7 ) ;
#273 = DIRECTION ( 'NONE',  ( 3.491481338843133355E-15, -1.224646799147353207E-16, 1.000000000000000000 ) ) ;
#274 = COORDINATED_UNIVERSAL_TIME_OFFSET ( 1, 0, .AHEAD. ) ;
#275 = CARTESIAN_POINT ( 'NONE',  ( 1.735266225405037467E-13, 1.499999999999995559, 49.70000000000000284 ) ) ;
#276 = DIRECTION ( 'NONE',  ( 4.275831445896958607E-31, 1.000000000000000000, 1.224646799147353207E-16 ) ) ;
#277 = APPROVAL_ROLE ( '' ) ;
#278 = AXIS2_PLACEMENT_3D ( 'NONE', #108, #216, #202 ) ;
#279 = PRODUCT_DEFINITION_FORMATION_WITH_SPECIFIED_SOURCE ( 'ANY', '', #192, .NOT_KNOWN. ) ;
#280 = CARTESIAN_POINT ( 'NONE',  ( 2.886013015238223984E-14, 0.8149999999999988365, 8.265869798961823278 ) ) ;
#281 = EDGE_LOOP ( 'NONE', ( #259 ) ) ;
#282 = VERTEX_POINT ( 'NONE', #233 ) ;
#283 = AXIS2_PLACEMENT_3D ( 'NONE', #42, #137, #204 ) ;
#284 = ADVANCED_FACE ( 'NONE', ( #63 ), #293, .F. ) ;
#285 = FACE_OUTER_BOUND ( 'NONE', #2, .T. ) ;
#286 = CC_DESIGN_APPROVAL ( #271, ( #182 ) ) ;
#287 = EDGE_LOOP ( 'NONE', ( #35 ) ) ;
#288 = CARTESIAN_POINT ( 'NONE',  ( 2.793185071074506684E-14, -9.797174393178825657E-16, 8.000000000000000000 ) ) ;
#289 = DIRECTION ( 'NONE',  ( 3.491481338843133355E-15, -1.224646799147353207E-16, 1.000000000000000000 ) ) ;
#290 = PRODUCT_RELATED_PRODUCT_CATEGORY ( 'detail', '', ( #192 ) ) ;
#291 = FACE_OUTER_BOUND ( 'NONE', #263, .T. ) ;
#292 = DIRECTION ( 'NONE',  ( 4.275831445896958607E-31, 1.000000000000000000, 1.224646799147353207E-16 ) ) ;
#293 = PLANE ( 'NONE',  #194 ) ;
#294 = VERTEX_POINT ( 'NONE', #280 ) ;
#295 = AXIS2_PLACEMENT_3D ( 'NONE', #196, #269, #159 ) ;
#296 = CARTESIAN_POINT ( 'NONE',  ( 6.405924284287273902E-14, 0.8453844939755781329, 18.34729635533384240 ) ) ;
#297 = APPLICATION_PROTOCOL_DEFINITION ( 'international standard', 'config_control_design', 1994, #186 ) ;
#298 = FACE_OUTER_BOUND ( 'NONE', #100, .T. ) ;
#299 = PERSON_AND_ORGANIZATION ( #220, #60 ) ;
#300 = VERTEX_POINT ( 'NONE', #296 ) ;
#301 = CLOSED_SHELL ( 'NONE', ( #191, #44, #139, #232 ) ) ;
#302 = AXIS2_PLACEMENT_3D ( 'NONE', #55, #289, #14 ) ;
#303 = APPROVAL_PERSON_ORGANIZATION ( #207, #242, #227 ) ;
ENDSEC;
END-ISO-10303-21;
