ISO-10303-21;
HEADER;
FILE_DESCRIPTION (( 'STEP AP203' ),
    '1' );
FILE_NAME ('326978.step',
    '2021-11-30T08:32:41',
    ( '' ),
    ( '' ),
    'SwSTEP 2.0',
    'SolidWorks 2019',
    '' );
FILE_SCHEMA (( 'CONFIG_CONTROL_DESIGN' ));
ENDSEC;

DATA;
#1 = EDGE_LOOP ( 'NONE', ( #60 ) ) ;
#2 = ORIENTED_EDGE ( 'NONE', *, *, #12, .F. ) ;
#3 = EDGE_CURVE ( 'NONE', #18, #18, #154, .T. ) ;
#4 = AXIS2_PLACEMENT_3D ( 'NONE', #229, #34, #258 ) ;
#5 = LOCAL_TIME ( 9, 32, 41.00000000000000000, #250 ) ;
#6 = DIRECTION ( 'NONE',  ( -3.491481338843133355E-15, 1.224646799147353207E-16, -1.000000000000000000 ) ) ;
#7 = ADVANCED_FACE ( 'NONE', ( #128 ), #109, .F. ) ;
#8 = DIRECTION ( 'NONE',  ( 4.275831445896958607E-31, 1.000000000000000000, 1.224646799147353207E-16 ) ) ;
#9 = AXIS2_PLACEMENT_3D ( 'NONE', #132, #293, #71 ) ;
#10 = PRODUCT_DEFINITION_FORMATION_WITH_SPECIFIED_SOURCE ( 'ANY', '', #232, .NOT_KNOWN. ) ;
#11 = DIRECTION ( 'NONE',  ( 0.0000000000000000000, 1.000000000000000000, 0.0000000000000000000 ) ) ;
#12 = EDGE_CURVE ( 'NONE', #163, #163, #303, .T. ) ;
#13 = CALENDAR_DATE ( 2021, 30, 11 ) ;
#14 = CARTESIAN_POINT ( 'NONE',  ( 7.712040467325477241E-14, 1.499999999999994005, 22.08816178258819818 ) ) ;
#15 = AXIS2_PLACEMENT_3D ( 'NONE', #98, #290, #68 ) ;
#16 = CYLINDRICAL_SURFACE ( 'NONE', #164, 0.8100000000000003864 ) ;
#17 = COORDINATED_UNIVERSAL_TIME_OFFSET ( 1, 0, .AHEAD. ) ;
#18 = VERTEX_POINT ( 'NONE', #142 ) ;
#19 = FACE_OUTER_BOUND ( 'NONE', #57, .T. ) ;
#20 = DATE_AND_TIME ( #23, #32 ) ;
#21 = DIRECTION ( 'NONE',  ( 0.0000000000000000000, 1.000000000000000000, 0.0000000000000000000 ) ) ;
#22 = EDGE_LOOP ( 'NONE', ( #255 ) ) ;
#23 = CALENDAR_DATE ( 2021, 30, 11 ) ;
#24 = CARTESIAN_POINT ( 'NONE',  ( 2.793185071074506684E-14, 0.9634999999999991349, 8.000000000000000000 ) ) ;
#25 = AXIS2_PLACEMENT_3D ( 'NONE', #170, #6, #124 ) ;
#26 = DIRECTION ( 'NONE',  ( 4.275831445896958607E-31, 1.000000000000000000, 1.224646799147353207E-16 ) ) ;
#27 = CARTESIAN_POINT ( 'NONE',  ( 8.728703347107829444E-16, -3.061616997868381785E-17, 0.2499999999999998890 ) ) ;
#28 = EDGE_LOOP ( 'NONE', ( #137 ) ) ;
#29 = ORIENTED_EDGE ( 'NONE', *, *, #282, .F. ) ;
#30 = CARTESIAN_POINT ( 'NONE',  ( -3.502600489047205848E-31, 1.228546872034802144E-32, -1.003184651190991887E-16 ) ) ;
#31 = EDGE_LOOP ( 'NONE', ( #2 ) ) ;
#32 = LOCAL_TIME ( 9, 32, 41.00000000000000000, #134 ) ;
#33 = EDGE_LOOP ( 'NONE', ( #196 ) ) ;
#34 = DIRECTION ( 'NONE',  ( 3.491481338843133355E-15, -1.224646799147353207E-16, 1.000000000000000000 ) ) ;
#35 =( GEOMETRIC_REPRESENTATION_CONTEXT ( 3 ) GLOBAL_UNCERTAINTY_ASSIGNED_CONTEXT ( ( #201 ) ) GLOBAL_UNIT_ASSIGNED_CONTEXT ( ( #300, #136, #175 ) ) REPRESENTATION_CONTEXT ( 'NONE', 'WORKASPACE' ) );
#36 = COORDINATED_UNIVERSAL_TIME_OFFSET ( 1, 0, .AHEAD. ) ;
#37 = ADVANCED_FACE ( 'NONE', ( #79, #84 ), #224, .T. ) ;
#38 = PERSON_AND_ORGANIZATION ( #95, #230 ) ;
#39 = APPLICATION_PROTOCOL_DEFINITION ( 'international standard', 'config_control_design', 1994, #151 ) ;
#40 = DATE_AND_TIME ( #243, #94 ) ;
#41 = CONICAL_SURFACE ( 'NONE', #283, 1.200000000000001732, 0.7853981633974453924 ) ;
#42 = PERSON_AND_ORGANIZATION ( #95, #230 ) ;
#43 = CARTESIAN_POINT ( 'NONE',  ( 1.745740669421566678E-13, 1.199999999999995515, 50.00000000000000000 ) ) ;
#44 = PERSON_AND_ORGANIZATION_ROLE ( 'classification_officer' ) ;
#45 = CIRCLE ( 'NONE', #113, 0.8099999999999999423 ) ;
#46 = CALENDAR_DATE ( 2021, 30, 11 ) ;
#47 = APPROVAL_ROLE ( '' ) ;
#48 = VERTEX_POINT ( 'NONE', #70 ) ;
#49 = EDGE_LOOP ( 'NONE', ( #82 ) ) ;
#50 = DATE_AND_TIME ( #13, #200 ) ;
#51 = DIRECTION ( 'NONE',  ( -3.491481338843133355E-15, 1.224646799147353207E-16, -1.000000000000000000 ) ) ;
#52 = CONICAL_SURFACE ( 'NONE', #149, 0.9634999999999991349, 0.5235987755982923764 ) ;
#53 = FACE_OUTER_BOUND ( 'NONE', #178, .T. ) ;
#54 = EDGE_LOOP ( 'NONE', ( #123 ) ) ;
#55 = EDGE_LOOP ( 'NONE', ( #106 ) ) ;
#56 = DIRECTION ( 'NONE',  ( 3.491481338843133355E-15, -1.224646799147353207E-16, 1.000000000000000000 ) ) ;
#57 = EDGE_LOOP ( 'NONE', ( #193 ) ) ;
#58 = CC_DESIGN_PERSON_AND_ORGANIZATION_ASSIGNMENT ( #114, #179, ( #232 ) ) ;
#59 = AXIS2_PLACEMENT_3D ( 'NONE', #144, #78, #233 ) ;
#60 = ORIENTED_EDGE ( 'NONE', *, *, #3, .T. ) ;
#61 = DIRECTION ( 'NONE',  ( -3.491481338843133355E-15, 1.224646799147353207E-16, -1.000000000000000000 ) ) ;
#62 = FACE_OUTER_BOUND ( 'NONE', #1, .T. ) ;
#63 = APPROVAL_ROLE ( '' ) ;
#64 = MECHANICAL_CONTEXT ( 'NONE', #151, 'mechanical' ) ;
#65 = FACE_OUTER_BOUND ( 'NONE', #190, .T. ) ;
#66 = CALENDAR_DATE ( 2021, 30, 11 ) ;
#67 = EDGE_CURVE ( 'NONE', #48, #48, #45, .T. ) ;
#68 = DIRECTION ( 'NONE',  ( 4.275831445896958607E-31, 1.000000000000000000, 1.224646799147353454E-16 ) ) ;
#69 = DIRECTION ( 'NONE',  ( -3.491481338843133355E-15, 1.224646799147353207E-16, -1.000000000000000000 ) ) ;
#70 = CARTESIAN_POINT ( 'NONE',  ( 6.284666409917638777E-14, 0.8099999999999978328, 17.99999999999999645 ) ) ;
#71 = DIRECTION ( 'NONE',  ( 0.0000000000000000000, 1.000000000000000000, 0.0000000000000000000 ) ) ;
#72 = DATE_TIME_ROLE ( 'classification_date' ) ;
#73 = AXIS2_PLACEMENT_3D ( 'NONE', #266, #160, #171 ) ;
#74 = CC_DESIGN_PERSON_AND_ORGANIZATION_ASSIGNMENT ( #208, #44, ( #143 ) ) ;
#75 = CC_DESIGN_APPROVAL ( #286, ( #143 ) ) ;
#76 = CARTESIAN_POINT ( 'NONE',  ( 6.284666409917640040E-14, -2.168404344971008868E-15, 18.00000000000000000 ) ) ;
#77 = EDGE_LOOP ( 'NONE', ( #218 ) ) ;
#78 = DIRECTION ( 'NONE',  ( -3.491481338843133355E-15, 1.224646799147353207E-16, -1.000000000000000000 ) ) ;
#79 = FACE_BOUND ( 'NONE', #126, .T. ) ;
#80 = FACE_OUTER_BOUND ( 'NONE', #54, .T. ) ;
#81 = EDGE_CURVE ( 'NONE', #101, #101, #297, .T. ) ;
#82 = ORIENTED_EDGE ( 'NONE', *, *, #12, .T. ) ;
#83 = ORIENTED_EDGE ( 'NONE', *, *, #81, .F. ) ;
#84 = FACE_OUTER_BOUND ( 'NONE', #22, .T. ) ;
#85 = EDGE_LOOP ( 'NONE', ( #146 ) ) ;
#86 = EDGE_CURVE ( 'NONE', #226, #226, #219, .T. ) ;
#87 = AXIS2_PLACEMENT_3D ( 'NONE', #257, #147, #236 ) ;
#88 = CIRCLE ( 'NONE', #187, 1.499999999999996669 ) ;
#89 = ADVANCED_FACE ( 'NONE', ( #135, #117 ), #277, .F. ) ;
#90 = DESIGN_CONTEXT ( 'detailed design', #194, 'design' ) ;
#91 = MANIFOLD_SOLID_BREP ( 'Corps-Déplacer/Copier1[1]', #112 ) ;
#92 = DIRECTION ( 'NONE',  ( 0.0000000000000000000, 1.000000000000000000, 0.0000000000000000000 ) ) ;
#93 = AXIS2_PLACEMENT_3D ( 'NONE', #172, #56, #198 ) ;
#94 = LOCAL_TIME ( 9, 32, 41.00000000000000000, #36 ) ;
#95 = PERSON ( 'UNSPECIFIED', 'UNSPECIFIED', 'UNSPECIFIED', ('UNSPECIFIED'), ('UNSPECIFIED'), ('UNSPECIFIED') ) ;
#96 = CYLINDRICAL_SURFACE ( 'NONE', #15, 1.499999999999999112 ) ;
#97 = AXIS2_PLACEMENT_3D ( 'NONE', #228, #122, #188 ) ;
#98 = CARTESIAN_POINT ( 'NONE',  ( 0.0000000000000000000, 0.0000000000000000000, 0.0000000000000000000 ) ) ;
#99 = PERSON_AND_ORGANIZATION_ROLE ( 'creator' ) ;
#100 = PLANE ( 'NONE',  #97 ) ;
#101 = VERTEX_POINT ( 'NONE', #43 ) ;
#102 = CIRCLE ( 'NONE', #214, 0.9634999999999991349 ) ;
#103 = ORIENTED_EDGE ( 'NONE', *, *, #86, .F. ) ;
#104 = ADVANCED_FACE ( 'NONE', ( #19, #186 ), #41, .T. ) ;
#105 = DIRECTION ( 'NONE',  ( 3.491481338843133355E-15, -1.224646799147353207E-16, 1.000000000000000000 ) ) ;
#106 = ORIENTED_EDGE ( 'NONE', *, *, #166, .T. ) ;
#107 = AXIS2_PLACEMENT_3D ( 'NONE', #182, #131, #260 ) ;
#108 = CARTESIAN_POINT ( 'NONE',  ( 2.793185071074506684E-14, -9.797174393178825657E-16, 8.000000000000000000 ) ) ;
#109 = PLANE ( 'NONE',  #87 ) ;
#110 = ADVANCED_FACE ( 'NONE', ( #247 ), #100, .F. ) ;
#111 = APPROVAL_ROLE ( '' ) ;
#112 = CLOSED_SHELL ( 'NONE', ( #110, #278, #125, #89, #37, #138, #104, #276 ) ) ;
#113 = AXIS2_PLACEMENT_3D ( 'NONE', #280, #284, #92 ) ;
#114 = PERSON_AND_ORGANIZATION ( #95, #230 ) ;
#115 = DIRECTION ( 'NONE',  ( 4.275831445896958607E-31, 1.000000000000000000, 1.224646799147353207E-16 ) ) ;
#116 = DIRECTION ( 'NONE',  ( 0.0000000000000000000, 1.000000000000000000, 0.0000000000000000000 ) ) ;
#117 = FACE_OUTER_BOUND ( 'NONE', #55, .T. ) ;
#118 = CC_DESIGN_PERSON_AND_ORGANIZATION_ASSIGNMENT ( #204, #285, ( #173 ) ) ;
#119 = FACE_OUTER_BOUND ( 'NONE', #301, .T. ) ;
#120 = APPROVAL_DATE_TIME ( #295, #286 ) ;
#121 = AXIS2_PLACEMENT_3D ( 'NONE', #240, #223, #116 ) ;
#122 = DIRECTION ( 'NONE',  ( 3.491481338843133355E-15, -1.224646799147353207E-16, 1.000000000000000000 ) ) ;
#123 = ORIENTED_EDGE ( 'NONE', *, *, #3, .F. ) ;
#124 = DIRECTION ( 'NONE',  ( 0.0000000000000000000, 1.000000000000000000, 0.0000000000000000000 ) ) ;
#125 = ADVANCED_FACE ( 'NONE', ( #209, #271 ), #16, .T. ) ;
#126 = EDGE_LOOP ( 'NONE', ( #140 ) ) ;
#127 = AXIS2_PLACEMENT_3D ( 'NONE', #76, #262, #115 ) ;
#128 = FACE_OUTER_BOUND ( 'NONE', #49, .T. ) ;
#129 = CARTESIAN_POINT ( 'NONE',  ( 8.728703347107829444E-16, -3.061616997868381785E-17, 0.2499999999999998890 ) ) ;
#130 = FACE_BOUND ( 'NONE', #31, .T. ) ;
#131 = DIRECTION ( 'NONE',  ( 0.0000000000000000000, 0.0000000000000000000, 1.000000000000000000 ) ) ;
#132 = CARTESIAN_POINT ( 'NONE',  ( 2.793185071074506684E-14, -9.797174393178825657E-16, 8.000000000000000000 ) ) ;
#133 = APPROVAL_STATUS ( 'not_yet_approved' ) ;
#134 = COORDINATED_UNIVERSAL_TIME_OFFSET ( 1, 0, .AHEAD. ) ;
#135 = FACE_OUTER_BOUND ( 'NONE', #234, .T. ) ;
#136 =( NAMED_UNIT ( * ) PLANE_ANGLE_UNIT ( ) SI_UNIT ( $, .RADIAN. ) );
#137 = ORIENTED_EDGE ( 'NONE', *, *, #86, .T. ) ;
#138 = ADVANCED_FACE ( 'NONE', ( #119, #265 ), #96, .T. ) ;
#139 = CARTESIAN_POINT ( 'NONE',  ( 7.712040467325477241E-14, -2.705019662609553044E-15, 22.08816178258819818 ) ) ;
#140 = ORIENTED_EDGE ( 'NONE', *, *, #166, .F. ) ;
#141 = CC_DESIGN_DATE_AND_TIME_ASSIGNMENT ( #50, #72, ( #143 ) ) ;
#142 = CARTESIAN_POINT ( 'NONE',  ( 2.793185071074506684E-14, 0.9634999999999991349, 8.000000000000000000 ) ) ;
#143 = SECURITY_CLASSIFICATION ( '', '', #270 ) ;
#144 = CARTESIAN_POINT ( 'NONE',  ( 0.0000000000000000000, 0.0000000000000000000, 0.0000000000000000000 ) ) ;
#145 = ORIENTED_EDGE ( 'NONE', *, *, #251, .F. ) ;
#146 = ORIENTED_EDGE ( 'NONE', *, *, #272, .F. ) ;
#147 = DIRECTION ( 'NONE',  ( 3.491481338843133355E-15, -1.224646799147353207E-16, 1.000000000000000000 ) ) ;
#148 = AXIS2_PLACEMENT_3D ( 'NONE', #108, #150, #237 ) ;
#149 = AXIS2_PLACEMENT_3D ( 'NONE', #129, #105, #238 ) ;
#150 = DIRECTION ( 'NONE',  ( -3.491481338843133355E-15, 1.224646799147353207E-16, -1.000000000000000000 ) ) ;
#151 = APPLICATION_CONTEXT ( 'configuration controlled 3d designs of mechanical parts and assemblies' ) ;
#152 = ORIENTED_EDGE ( 'NONE', *, *, #67, .T. ) ;
#153 = DIRECTION ( 'NONE',  ( 3.997778815541748862E-31, 1.000000000000000000, 1.125274698998967690E-16 ) ) ;
#154 = CIRCLE ( 'NONE', #148, 0.9635000000000000231 ) ;
#155 = CIRCLE ( 'NONE', #121, 0.8100000000000009415 ) ;
#156 = DATE_AND_TIME ( #66, #221 ) ;
#157 = DIRECTION ( 'NONE',  ( -3.491481338843133355E-15, 1.224646799147353207E-16, -1.000000000000000000 ) ) ;
#158 = ADVANCED_BREP_SHAPE_REPRESENTATION ( '326978', ( #91, #268, #107 ), #35 ) ;
#159 = APPROVAL_PERSON_ORGANIZATION ( #38, #217, #111 ) ;
#160 = DIRECTION ( 'NONE',  ( -3.491481338843133355E-15, 1.224646799147353207E-16, -1.000000000000000000 ) ) ;
#161 = CC_DESIGN_PERSON_AND_ORGANIZATION_ASSIGNMENT ( #207, #210, ( #10 ) ) ;
#162 = DIRECTION ( 'NONE',  ( 0.0000000000000000000, 1.000000000000000000, 0.0000000000000000000 ) ) ;
#163 = VERTEX_POINT ( 'NONE', #211 ) ;
#164 = AXIS2_PLACEMENT_3D ( 'NONE', #167, #185, #287 ) ;
#165 = PERSON_AND_ORGANIZATION ( #95, #230 ) ;
#166 = EDGE_CURVE ( 'NONE', #267, #267, #199, .T. ) ;
#167 = CARTESIAN_POINT ( 'NONE',  ( 0.0000000000000000000, 0.0000000000000000000, 0.0000000000000000000 ) ) ;
#168 = PERSON_AND_ORGANIZATION ( #95, #230 ) ;
#169 = DIRECTION ( 'NONE',  ( -3.491481338843133355E-15, 1.224646799147353207E-16, -1.000000000000000000 ) ) ;
#170 = CARTESIAN_POINT ( 'NONE',  ( 1.735266225405037467E-13, -6.086494591762345225E-15, 49.70000000000000284 ) ) ;
#171 = DIRECTION ( 'NONE',  ( 0.0000000000000000000, 1.000000000000000000, 0.0000000000000000000 ) ) ;
#172 = CARTESIAN_POINT ( 'NONE',  ( 7.712040467325477241E-14, -2.705019662609553044E-15, 22.08816178258819818 ) ) ;
#173 = PRODUCT_DEFINITION ( 'UNKNOWN', '', #10, #90 ) ;
#174 = CIRCLE ( 'NONE', #25, 1.500000000000001554 ) ;
#175 =( NAMED_UNIT ( * ) SI_UNIT ( $, .STERADIAN. ) SOLID_ANGLE_UNIT ( ) );
#176 = EDGE_LOOP ( 'NONE', ( #269 ) ) ;
#177 = ADVANCED_FACE ( 'NONE', ( #130, #298 ), #52, .T. ) ;
#178 = EDGE_LOOP ( 'NONE', ( #145 ) ) ;
#179 = PERSON_AND_ORGANIZATION_ROLE ( 'design_owner' ) ;
#180 = FACE_OUTER_BOUND ( 'NONE', #235, .T. ) ;
#181 = AXIS2_PLACEMENT_3D ( 'NONE', #30, #61, #26 ) ;
#182 = CARTESIAN_POINT ( 'NONE',  ( 0.0000000000000000000, 0.0000000000000000000, 0.0000000000000000000 ) ) ;
#183 = FACE_BOUND ( 'NONE', #77, .T. ) ;
#184 = PLANE ( 'NONE',  #256 ) ;
#185 = DIRECTION ( 'NONE',  ( -3.491481338843133355E-15, 1.224646799147353207E-16, -1.000000000000000000 ) ) ;
#186 = FACE_BOUND ( 'NONE', #273, .T. ) ;
#187 = AXIS2_PLACEMENT_3D ( 'NONE', #139, #169, #21 ) ;
#188 = DIRECTION ( 'NONE',  ( -4.275831445896958607E-31, -1.000000000000000000, -1.224646799147353207E-16 ) ) ;
#189 = VERTEX_POINT ( 'NONE', #292 ) ;
#190 = EDGE_LOOP ( 'NONE', ( #103 ) ) ;
#191 = CARTESIAN_POINT ( 'NONE',  ( 2.886013015238223984E-14, 0.8099999999999999423, 8.265869798961821502 ) ) ;
#192 = ADVANCED_FACE ( 'NONE', ( #80 ), #253, .T. ) ;
#193 = ORIENTED_EDGE ( 'NONE', *, *, #220, .F. ) ;
#194 = APPLICATION_CONTEXT ( 'configuration controlled 3d designs of mechanical parts and assemblies' ) ;
#195 = PRODUCT_RELATED_PRODUCT_CATEGORY ( 'detail', '', ( #232 ) ) ;
#196 = ORIENTED_EDGE ( 'NONE', *, *, #251, .T. ) ;
#197 = CONICAL_SURFACE ( 'NONE', #244, 0.9635000000000000231, 0.5235987755982999259 ) ;
#198 = DIRECTION ( 'NONE',  ( 0.0000000000000000000, -1.000000000000000000, 0.0000000000000000000 ) ) ;
#199 = CIRCLE ( 'NONE', #73, 0.8403844939755814591 ) ;
#200 = LOCAL_TIME ( 9, 32, 41.00000000000000000, #17 ) ;
#201 = UNCERTAINTY_MEASURE_WITH_UNIT (LENGTH_MEASURE( 1.000000000000000082E-05 ), #300, 'distance_accuracy_value', 'NONE');
#202 = COORDINATED_UNIVERSAL_TIME_OFFSET ( 1, 0, .AHEAD. ) ;
#203 = CARTESIAN_POINT ( 'NONE',  ( 1.745740669421566678E-13, -6.123233995736766085E-15, 50.00000000000000000 ) ) ;
#204 = PERSON_AND_ORGANIZATION ( #95, #230 ) ;
#205 = APPROVAL ( #281, 'UNSPECIFIED' ) ;
#206 = APPROVAL_DATE_TIME ( #20, #217 ) ;
#207 = PERSON_AND_ORGANIZATION ( #95, #230 ) ;
#208 = PERSON_AND_ORGANIZATION ( #95, #230 ) ;
#209 = FACE_OUTER_BOUND ( 'NONE', #249, .T. ) ;
#210 = PERSON_AND_ORGANIZATION_ROLE ( 'design_supplier' ) ;
#211 = CARTESIAN_POINT ( 'NONE',  ( 4.276423536147513034E-47, 0.8191624327025948116, 0.0000000000000000000 ) ) ;
#212 = CYLINDRICAL_SURFACE ( 'NONE', #59, 0.9634999999999994680 ) ;
#213 = ORIENTED_EDGE ( 'NONE', *, *, #81, .T. ) ;
#214 = AXIS2_PLACEMENT_3D ( 'NONE', #27, #274, #153 ) ;
#215 = APPROVAL_STATUS ( 'not_yet_approved' ) ;
#216 = CARTESIAN_POINT ( 'NONE',  ( 6.405924284287273902E-14, 0.8403844939755792387, 18.34729635533384240 ) ) ;
#217 = APPROVAL ( #133, 'UNSPECIFIED' ) ;
#218 = ORIENTED_EDGE ( 'NONE', *, *, #272, .T. ) ;
#219 = CIRCLE ( 'NONE', #9, 0.9635000000000000231 ) ;
#220 = EDGE_CURVE ( 'NONE', #189, #189, #174, .T. ) ;
#221 = LOCAL_TIME ( 9, 32, 41.00000000000000000, #202 ) ;
#222 = APPROVAL_DATE_TIME ( #156, #205 ) ;
#223 = DIRECTION ( 'NONE',  ( -3.491481338843133355E-15, 1.224646799147353207E-16, -1.000000000000000000 ) ) ;
#224 = CONICAL_SURFACE ( 'NONE', #93, 1.499999999999996669, 0.1745329251994258701 ) ;
#225 = DIRECTION ( 'NONE',  ( -3.491481338843133355E-15, 1.224646799147353207E-16, -1.000000000000000000 ) ) ;
#226 = VERTEX_POINT ( 'NONE', #24 ) ;
#227 = ADVANCED_FACE ( 'NONE', ( #53, #62 ), #212, .T. ) ;
#228 = CARTESIAN_POINT ( 'NONE',  ( 2.793185071074506684E-14, 7.225092752973485533E-33, 8.000000000000000000 ) ) ;
#229 = CARTESIAN_POINT ( 'NONE',  ( 2.793185071074506684E-14, 7.225092752973485533E-33, 8.000000000000000000 ) ) ;
#230 = ORGANIZATION ( 'UNSPECIFIED', 'UNSPECIFIED', '' ) ;
#231 = VERTEX_POINT ( 'NONE', #299 ) ;
#232 = PRODUCT ( '326978', '326978', '', ( #64 ) ) ;
#233 = DIRECTION ( 'NONE',  ( 4.275831445896958607E-31, 1.000000000000000000, 1.224646799147353454E-16 ) ) ;
#234 = EDGE_LOOP ( 'NONE', ( #302 ) ) ;
#235 = EDGE_LOOP ( 'NONE', ( #83 ) ) ;
#236 = DIRECTION ( 'NONE',  ( -4.275831445896958607E-31, -1.000000000000000000, -1.224646799147353207E-16 ) ) ;
#237 = DIRECTION ( 'NONE',  ( 0.0000000000000000000, 1.000000000000000000, 0.0000000000000000000 ) ) ;
#238 = DIRECTION ( 'NONE',  ( -3.997778815541748862E-31, -1.000000000000000000, -1.125274698998967690E-16 ) ) ;
#239 = APPLICATION_PROTOCOL_DEFINITION ( 'international standard', 'config_control_design', 1994, #194 ) ;
#240 = CARTESIAN_POINT ( 'NONE',  ( 2.886013015238223984E-14, -1.012277099146736966E-15, 8.265869798961821502 ) ) ;
#241 = DATE_TIME_ROLE ( 'creation_date' ) ;
#242 = CARTESIAN_POINT ( 'NONE',  ( 2.793185071074506684E-14, -9.797174393178825657E-16, 8.000000000000000000 ) ) ;
#243 = CALENDAR_DATE ( 2021, 30, 11 ) ;
#244 = AXIS2_PLACEMENT_3D ( 'NONE', #242, #51, #246 ) ;
#245 = CC_DESIGN_SECURITY_CLASSIFICATION ( #143, ( #10 ) ) ;
#246 = DIRECTION ( 'NONE',  ( 0.0000000000000000000, 1.000000000000000000, 0.0000000000000000000 ) ) ;
#247 = FACE_OUTER_BOUND ( 'NONE', #28, .T. ) ;
#248 = VERTEX_POINT ( 'NONE', #191 ) ;
#249 = EDGE_LOOP ( 'NONE', ( #152 ) ) ;
#250 = COORDINATED_UNIVERSAL_TIME_OFFSET ( 1, 0, .AHEAD. ) ;
#251 = EDGE_CURVE ( 'NONE', #231, #231, #102, .T. ) ;
#252 = PRODUCT_DEFINITION_SHAPE ( 'NONE', 'NONE',  #173 ) ;
#253 = PLANE ( 'NONE',  #4 ) ;
#254 = CC_DESIGN_APPROVAL ( #217, ( #10 ) ) ;
#255 = ORIENTED_EDGE ( 'NONE', *, *, #282, .T. ) ;
#256 = AXIS2_PLACEMENT_3D ( 'NONE', #261, #157, #8 ) ;
#257 = CARTESIAN_POINT ( 'NONE',  ( -1.751300244523602924E-31, 6.142734360174010722E-33, -5.015923255954959434E-17 ) ) ;
#258 = DIRECTION ( 'NONE',  ( -4.275831445896958607E-31, -1.000000000000000000, -1.224646799147353207E-16 ) ) ;
#259 = CC_DESIGN_APPROVAL ( #205, ( #173 ) ) ;
#260 = DIRECTION ( 'NONE',  ( 1.000000000000000000, 0.0000000000000000000, 0.0000000000000000000 ) ) ;
#261 = CARTESIAN_POINT ( 'NONE',  ( 1.745740669421566678E-13, 8.998558695971067645E-33, 50.00000000000000000 ) ) ;
#262 = DIRECTION ( 'NONE',  ( -3.491481338843133355E-15, 1.224646799147353207E-16, -1.000000000000000000 ) ) ;
#263 = APPROVAL_PERSON_ORGANIZATION ( #42, #205, #63 ) ;
#264 = APPROVAL_PERSON_ORGANIZATION ( #165, #286, #47 ) ;
#265 = FACE_OUTER_BOUND ( 'NONE', #176, .T. ) ;
#266 = CARTESIAN_POINT ( 'NONE',  ( 6.405924284287273902E-14, -2.246895775456748746E-15, 18.34729635533384240 ) ) ;
#267 = VERTEX_POINT ( 'NONE', #216 ) ;
#268 = MANIFOLD_SOLID_BREP ( 'Corps-Déplacer/Copier1[2]', #275 ) ;
#269 = ORIENTED_EDGE ( 'NONE', *, *, #220, .T. ) ;
#270 = SECURITY_CLASSIFICATION_LEVEL ( 'unclassified' ) ;
#271 = FACE_OUTER_BOUND ( 'NONE', #85, .T. ) ;
#272 = EDGE_CURVE ( 'NONE', #248, #248, #155, .T. ) ;
#273 = EDGE_LOOP ( 'NONE', ( #213 ) ) ;
#274 = DIRECTION ( 'NONE',  ( -3.491481338843133355E-15, 1.224646799147353207E-16, -1.000000000000000000 ) ) ;
#275 = CLOSED_SHELL ( 'NONE', ( #7, #177, #227, #192 ) ) ;
#276 = ADVANCED_FACE ( 'NONE', ( #180 ), #184, .F. ) ;
#277 = TOROIDAL_SURFACE ( 'NONE', #127, 2.810000000000000053, 2.000000000000000000 ) ;
#278 = ADVANCED_FACE ( 'NONE', ( #183, #65 ), #197, .T. ) ;
#279 = CC_DESIGN_PERSON_AND_ORGANIZATION_ASSIGNMENT ( #168, #99, ( #10 ) ) ;
#280 = CARTESIAN_POINT ( 'NONE',  ( 6.284666409917638777E-14, -2.204364238465235033E-15, 17.99999999999999645 ) ) ;
#281 = APPROVAL_STATUS ( 'not_yet_approved' ) ;
#282 = EDGE_CURVE ( 'NONE', #294, #294, #88, .T. ) ;
#283 = AXIS2_PLACEMENT_3D ( 'NONE', #203, #225, #162 ) ;
#284 = DIRECTION ( 'NONE',  ( -3.491481338843133355E-15, 1.224646799147353207E-16, -1.000000000000000000 ) ) ;
#285 = PERSON_AND_ORGANIZATION_ROLE ( 'creator' ) ;
#286 = APPROVAL ( #215, 'UNSPECIFIED' ) ;
#287 = DIRECTION ( 'NONE',  ( 4.275831445896958607E-31, 1.000000000000000000, 1.224646799147353207E-16 ) ) ;
#288 = CARTESIAN_POINT ( 'NONE',  ( 1.745740669421566678E-13, -6.123233995736766085E-15, 50.00000000000000000 ) ) ;
#289 = AXIS2_PLACEMENT_3D ( 'NONE', #288, #69, #11 ) ;
#290 = DIRECTION ( 'NONE',  ( -3.491481338843133355E-15, 1.224646799147353207E-16, -1.000000000000000000 ) ) ;
#291 = SHAPE_DEFINITION_REPRESENTATION ( #252, #158 ) ;
#292 = CARTESIAN_POINT ( 'NONE',  ( 1.735266225405037467E-13, 1.499999999999995559, 49.70000000000000284 ) ) ;
#293 = DIRECTION ( 'NONE',  ( -3.491481338843133355E-15, 1.224646799147353207E-16, -1.000000000000000000 ) ) ;
#294 = VERTEX_POINT ( 'NONE', #14 ) ;
#295 = DATE_AND_TIME ( #46, #5 ) ;
#296 = CC_DESIGN_DATE_AND_TIME_ASSIGNMENT ( #40, #241, ( #173 ) ) ;
#297 = CIRCLE ( 'NONE', #289, 1.200000000000001732 ) ;
#298 = FACE_OUTER_BOUND ( 'NONE', #33, .T. ) ;
#299 = CARTESIAN_POINT ( 'NONE',  ( 8.728703347107833388E-16, 0.9634999999999991349, 0.2500000000000000000 ) ) ;
#300 =( LENGTH_UNIT ( ) NAMED_UNIT ( * ) SI_UNIT ( .MILLI., .METRE. ) );
#301 = EDGE_LOOP ( 'NONE', ( #29 ) ) ;
#302 = ORIENTED_EDGE ( 'NONE', *, *, #67, .F. ) ;
#303 = CIRCLE ( 'NONE', #181, 0.8191624327025948116 ) ;
ENDSEC;
END-ISO-10303-21;
