ISO-10303-21;
HEADER;
FILE_DESCRIPTION (( 'STEP AP203' ),
    '1' );
FILE_NAME ('326977.step',
    '2021-11-30T08:32:40',
    ( '' ),
    ( '' ),
    'SwSTEP 2.0',
    'SolidWorks 2019',
    '' );
FILE_SCHEMA (( 'CONFIG_CONTROL_DESIGN' ));
ENDSEC;

DATA;
#1 = APPROVAL_DATE_TIME ( #134, #187 ) ;
#2 = ORIENTED_EDGE ( 'NONE', *, *, #303, .F. ) ;
#3 = LOCAL_TIME ( 9, 32, 40.00000000000000000, #86 ) ;
#4 = VERTEX_POINT ( 'NONE', #59 ) ;
#5 = CC_DESIGN_PERSON_AND_ORGANIZATION_ASSIGNMENT ( #40, #204, ( #97 ) ) ;
#6 = CARTESIAN_POINT ( 'NONE',  ( 8.728703347107829444E-16, -3.061616997868381785E-17, 0.2499999999999998890 ) ) ;
#7 = DIRECTION ( 'NONE',  ( 3.491481338843133355E-15, -1.224646799147353207E-16, 1.000000000000000000 ) ) ;
#8 = ADVANCED_FACE ( 'NONE', ( #74 ), #158, .F. ) ;
#9 = FACE_OUTER_BOUND ( 'NONE', #17, .T. ) ;
#10 = DIRECTION ( 'NONE',  ( 0.0000000000000000000, 1.000000000000000000, 0.0000000000000000000 ) ) ;
#11 = EDGE_LOOP ( 'NONE', ( #2 ) ) ;
#12 = DATE_AND_TIME ( #35, #211 ) ;
#13 = AXIS2_PLACEMENT_3D ( 'NONE', #215, #29, #124 ) ;
#14 = DATE_TIME_ROLE ( 'creation_date' ) ;
#15 = COORDINATED_UNIVERSAL_TIME_OFFSET ( 1, 0, .AHEAD. ) ;
#16 = AXIS2_PLACEMENT_3D ( 'NONE', #237, #213, #96 ) ;
#17 = EDGE_LOOP ( 'NONE', ( #290 ) ) ;
#18 = PRODUCT_DEFINITION ( 'UNKNOWN', '', #251, #139 ) ;
#19 = DIRECTION ( 'NONE',  ( 4.275831445896958607E-31, 1.000000000000000000, 1.224646799147353454E-16 ) ) ;
#20 = DIRECTION ( 'NONE',  ( -3.491481338843133355E-15, 1.224646799147353207E-16, -1.000000000000000000 ) ) ;
#21 = SHAPE_DEFINITION_REPRESENTATION ( #57, #270 ) ;
#22 = CARTESIAN_POINT ( 'NONE',  ( 1.745740669421566678E-13, 8.998558695971067645E-33, 50.00000000000000000 ) ) ;
#23 = CARTESIAN_POINT ( 'NONE',  ( -2.644220264641471707E-31, 9.274676187748727499E-33, -7.573347837275301091E-17 ) ) ;
#24 = ORIENTED_EDGE ( 'NONE', *, *, #299, .F. ) ;
#25 = VERTEX_POINT ( 'NONE', #121 ) ;
#26 = AXIS2_PLACEMENT_3D ( 'NONE', #182, #300, #185 ) ;
#27 = CIRCLE ( 'NONE', #245, 0.9385000000000000009 ) ;
#28 = FACE_OUTER_BOUND ( 'NONE', #156, .T. ) ;
#29 = DIRECTION ( 'NONE',  ( -3.491481338843133355E-15, 1.224646799147353207E-16, -1.000000000000000000 ) ) ;
#30 = DIRECTION ( 'NONE',  ( -3.491481338843133355E-15, 1.224646799147353207E-16, -1.000000000000000000 ) ) ;
#31 = DIRECTION ( 'NONE',  ( -4.275831445896958607E-31, -1.000000000000000000, -1.224646799147353207E-16 ) ) ;
#32 = CIRCLE ( 'NONE', #50, 0.8350000000000000755 ) ;
#33 = EDGE_CURVE ( 'NONE', #266, #266, #292, .T. ) ;
#34 = ORIENTED_EDGE ( 'NONE', *, *, #218, .T. ) ;
#35 = CALENDAR_DATE ( 2021, 30, 11 ) ;
#36 = CARTESIAN_POINT ( 'NONE',  ( 1.745740669421566678E-13, 1.199999999999995515, 50.00000000000000000 ) ) ;
#37 = APPLICATION_CONTEXT ( 'configuration controlled 3d designs of mechanical parts and assemblies' ) ;
#38 = AXIS2_PLACEMENT_3D ( 'NONE', #167, #188, #192 ) ;
#39 = APPROVAL_ROLE ( '' ) ;
#40 = PERSON_AND_ORGANIZATION ( #146, #157 ) ;
#41 = EDGE_CURVE ( 'NONE', #79, #79, #286, .T. ) ;
#42 = CYLINDRICAL_SURFACE ( 'NONE', #73, 0.9384999999999994458 ) ;
#43 = ORIENTED_EDGE ( 'NONE', *, *, #136, .T. ) ;
#44 = COORDINATED_UNIVERSAL_TIME_OFFSET ( 1, 0, .AHEAD. ) ;
#45 = EDGE_LOOP ( 'NONE', ( #105 ) ) ;
#46 = DIRECTION ( 'NONE',  ( 4.275831445896957731E-31, 1.000000000000000000, 1.224646799147353207E-16 ) ) ;
#47 = EDGE_LOOP ( 'NONE', ( #268 ) ) ;
#48 = DIRECTION ( 'NONE',  ( -3.491481338843133355E-15, 1.224646799147353207E-16, -1.000000000000000000 ) ) ;
#49 = APPROVAL ( #271, 'UNSPECIFIED' ) ;
#50 = AXIS2_PLACEMENT_3D ( 'NONE', #102, #77, #51 ) ;
#51 = DIRECTION ( 'NONE',  ( 0.0000000000000000000, 1.000000000000000000, 0.0000000000000000000 ) ) ;
#52 = CARTESIAN_POINT ( 'NONE',  ( 0.0000000000000000000, 0.0000000000000000000, 0.0000000000000000000 ) ) ;
#53 = CC_DESIGN_PERSON_AND_ORGANIZATION_ASSIGNMENT ( #203, #112, ( #251 ) ) ;
#54 = DIRECTION ( 'NONE',  ( 4.275831445896958607E-31, 1.000000000000000000, 1.224646799147353454E-16 ) ) ;
#55 = EDGE_LOOP ( 'NONE', ( #265 ) ) ;
#56 = VERTEX_POINT ( 'NONE', #269 ) ;
#57 = PRODUCT_DEFINITION_SHAPE ( 'NONE', 'NONE',  #18 ) ;
#58 = ORIENTED_EDGE ( 'NONE', *, *, #303, .T. ) ;
#59 = CARTESIAN_POINT ( 'NONE',  ( 6.056776150402963091E-14, 0.8653844939755799270, 17.34729635533384595 ) ) ;
#60 = CARTESIAN_POINT ( 'NONE',  ( 0.0000000000000000000, 0.0000000000000000000, 0.0000000000000000000 ) ) ;
#61 = PERSON_AND_ORGANIZATION_ROLE ( 'creator' ) ;
#62 = LOCAL_TIME ( 9, 32, 40.00000000000000000, #44 ) ;
#63 =( LENGTH_UNIT ( ) NAMED_UNIT ( * ) SI_UNIT ( .MILLI., .METRE. ) );
#64 = PERSON_AND_ORGANIZATION ( #146, #157 ) ;
#65 = CC_DESIGN_PERSON_AND_ORGANIZATION_ASSIGNMENT ( #153, #109, ( #131 ) ) ;
#66 = DIRECTION ( 'NONE',  ( 4.275831445896959482E-31, 1.000000000000000000, 1.224646799147353207E-16 ) ) ;
#67 = AXIS2_PLACEMENT_3D ( 'NONE', #22, #113, #95 ) ;
#68 = AXIS2_PLACEMENT_3D ( 'NONE', #52, #172, #54 ) ;
#69 = CONICAL_SURFACE ( 'NONE', #16, 1.499999999999996669, 0.1745329251994258424 ) ;
#70 = CARTESIAN_POINT ( 'NONE',  ( 2.793185071074506684E-14, -9.797174393178825657E-16, 8.000000000000000000 ) ) ;
#71 = EDGE_LOOP ( 'NONE', ( #235 ) ) ;
#72 = DIRECTION ( 'NONE',  ( -3.491481338843133355E-15, 1.224646799147353207E-16, -1.000000000000000000 ) ) ;
#73 = AXIS2_PLACEMENT_3D ( 'NONE', #232, #180, #19 ) ;
#74 = FACE_OUTER_BOUND ( 'NONE', #138, .T. ) ;
#75 = CARTESIAN_POINT ( 'NONE',  ( -1.892735826383161794E-31, 0.7941624327025946783, -5.421010862427522170E-17 ) ) ;
#76 = ADVANCED_FACE ( 'NONE', ( #135, #255 ), #92, .F. ) ;
#77 = DIRECTION ( 'NONE',  ( -3.491481338843133355E-15, 1.224646799147353207E-16, -1.000000000000000000 ) ) ;
#78 = CC_DESIGN_APPROVAL ( #49, ( #18 ) ) ;
#79 = VERTEX_POINT ( 'NONE', #143 ) ;
#80 = VERTEX_POINT ( 'NONE', #238 ) ;
#81 = DIRECTION ( 'NONE',  ( -3.491481338843133355E-15, 1.224646799147353207E-16, -1.000000000000000000 ) ) ;
#82 = ORIENTED_EDGE ( 'NONE', *, *, #41, .F. ) ;
#83 = AXIS2_PLACEMENT_3D ( 'NONE', #243, #81, #190 ) ;
#84 = CALENDAR_DATE ( 2021, 30, 11 ) ;
#85 = CC_DESIGN_PERSON_AND_ORGANIZATION_ASSIGNMENT ( #295, #178, ( #251 ) ) ;
#86 = COORDINATED_UNIVERSAL_TIME_OFFSET ( 1, 0, .AHEAD. ) ;
#87 = CIRCLE ( 'NONE', #38, 1.500000000000001554 ) ;
#88 = ADVANCED_FACE ( 'NONE', ( #229 ), #277, .F. ) ;
#89 = CALENDAR_DATE ( 2021, 30, 11 ) ;
#90 = DIRECTION ( 'NONE',  ( -4.275831445896958607E-31, -1.000000000000000000, -1.224646799147353207E-16 ) ) ;
#91 = FACE_BOUND ( 'NONE', #246, .T. ) ;
#92 = TOROIDAL_SURFACE ( 'NONE', #199, 2.835000000000000409, 2.000000000000000000 ) ;
#93 =( GEOMETRIC_REPRESENTATION_CONTEXT ( 3 ) GLOBAL_UNCERTAINTY_ASSIGNED_CONTEXT ( ( #183 ) ) GLOBAL_UNIT_ASSIGNED_CONTEXT ( ( #63, #221, #130 ) ) REPRESENTATION_CONTEXT ( 'NONE', 'WORKASPACE' ) );
#94 = ORIENTED_EDGE ( 'NONE', *, *, #142, .T. ) ;
#95 = DIRECTION ( 'NONE',  ( 4.275831445896958607E-31, 1.000000000000000000, 1.224646799147353207E-16 ) ) ;
#96 = DIRECTION ( 'NONE',  ( 0.0000000000000000000, -1.000000000000000000, 0.0000000000000000000 ) ) ;
#97 = SECURITY_CLASSIFICATION ( '', '', #252 ) ;
#98 = ADVANCED_FACE ( 'NONE', ( #276, #278 ), #137, .T. ) ;
#99 = DIRECTION ( 'NONE',  ( -3.491481338843133355E-15, 1.224646799147353207E-16, -1.000000000000000000 ) ) ;
#100 = ORIENTED_EDGE ( 'NONE', *, *, #253, .F. ) ;
#101 = DIRECTION ( 'NONE',  ( -3.491481338843133355E-15, 1.224646799147353207E-16, -1.000000000000000000 ) ) ;
#102 = CARTESIAN_POINT ( 'NONE',  ( 5.935518276033326704E-14, -2.081899558550500280E-15, 17.00000000000000000 ) ) ;
#103 = DIRECTION ( 'NONE',  ( -4.275831445896958607E-31, -1.000000000000000000, -1.224646799147353207E-16 ) ) ;
#104 = DIRECTION ( 'NONE',  ( 0.0000000000000000000, 1.000000000000000000, 0.0000000000000000000 ) ) ;
#105 = ORIENTED_EDGE ( 'NONE', *, *, #142, .F. ) ;
#106 = ADVANCED_FACE ( 'NONE', ( #91, #161 ), #69, .T. ) ;
#107 = CALENDAR_DATE ( 2021, 30, 11 ) ;
#108 = AXIS2_PLACEMENT_3D ( 'NONE', #70, #20, #115 ) ;
#109 = PERSON_AND_ORGANIZATION_ROLE ( 'design_owner' ) ;
#110 = APPROVAL_DATE_TIME ( #198, #111 ) ;
#111 = APPROVAL ( #293, 'UNSPECIFIED' ) ;
#112 = PERSON_AND_ORGANIZATION_ROLE ( 'creator' ) ;
#113 = DIRECTION ( 'NONE',  ( -3.491481338843133355E-15, 1.224646799147353207E-16, -1.000000000000000000 ) ) ;
#114 = CARTESIAN_POINT ( 'NONE',  ( 2.793185071074506684E-14, -9.797174393178825657E-16, 8.000000000000000000 ) ) ;
#115 = DIRECTION ( 'NONE',  ( 0.0000000000000000000, 1.000000000000000000, 0.0000000000000000000 ) ) ;
#116 = APPROVAL_PERSON_ORGANIZATION ( #132, #111, #154 ) ;
#117 = CLOSED_SHELL ( 'NONE', ( #8, #195, #120, #191 ) ) ;
#118 = EDGE_LOOP ( 'NONE', ( #43 ) ) ;
#119 = CARTESIAN_POINT ( 'NONE',  ( 0.0000000000000000000, 0.0000000000000000000, 0.0000000000000000000 ) ) ;
#120 = ADVANCED_FACE ( 'NONE', ( #233, #206 ), #42, .T. ) ;
#121 = CARTESIAN_POINT ( 'NONE',  ( 7.313389396839873002E-14, 1.499999999999994005, 20.94637973709775025 ) ) ;
#122 = AXIS2_PLACEMENT_3D ( 'NONE', #170, #127, #31 ) ;
#123 = FACE_OUTER_BOUND ( 'NONE', #302, .T. ) ;
#124 = DIRECTION ( 'NONE',  ( 0.0000000000000000000, 1.000000000000000000, 0.0000000000000000000 ) ) ;
#125 = CARTESIAN_POINT ( 'NONE',  ( 2.793185071074506684E-14, 0.9384999999999990017, 8.000000000000000000 ) ) ;
#126 = AXIS2_PLACEMENT_3D ( 'NONE', #219, #240, #103 ) ;
#127 = DIRECTION ( 'NONE',  ( 3.491481338843133355E-15, -1.224646799147353207E-16, 1.000000000000000000 ) ) ;
#128 = EDGE_LOOP ( 'NONE', ( #82 ) ) ;
#129 = APPROVAL_DATE_TIME ( #12, #49 ) ;
#130 =( NAMED_UNIT ( * ) SI_UNIT ( $, .STERADIAN. ) SOLID_ANGLE_UNIT ( ) );
#131 = PRODUCT ( '326977', '326977', '', ( #247 ) ) ;
#132 = PERSON_AND_ORGANIZATION ( #146, #157 ) ;
#133 = AXIS2_PLACEMENT_3D ( 'NONE', #214, #99, #144 ) ;
#134 = DATE_AND_TIME ( #181, #62 ) ;
#135 = FACE_OUTER_BOUND ( 'NONE', #164, .T. ) ;
#136 = EDGE_CURVE ( 'NONE', #263, #263, #200, .T. ) ;
#137 = CYLINDRICAL_SURFACE ( 'NONE', #250, 0.8350000000000001865 ) ;
#138 = EDGE_LOOP ( 'NONE', ( #220 ) ) ;
#139 = DESIGN_CONTEXT ( 'detailed design', #37, 'design' ) ;
#140 = APPROVAL_PERSON_ORGANIZATION ( #64, #187, #230 ) ;
#141 = ORIENTED_EDGE ( 'NONE', *, *, #227, .F. ) ;
#142 = EDGE_CURVE ( 'NONE', #287, #287, #27, .T. ) ;
#143 = CARTESIAN_POINT ( 'NONE',  ( 8.728703347107833388E-16, 0.9384999999999990017, 0.2500000000000000000 ) ) ;
#144 = DIRECTION ( 'NONE',  ( 0.0000000000000000000, 1.000000000000000000, 0.0000000000000000000 ) ) ;
#145 = CIRCLE ( 'NONE', #133, 0.8350000000000002975 ) ;
#146 = PERSON ( 'UNSPECIFIED', 'UNSPECIFIED', 'UNSPECIFIED', ('UNSPECIFIED'), ('UNSPECIFIED'), ('UNSPECIFIED') ) ;
#147 = PLANE ( 'NONE',  #126 ) ;
#148 = FACE_BOUND ( 'NONE', #55, .T. ) ;
#149 = FACE_OUTER_BOUND ( 'NONE', #159, .T. ) ;
#150 = EDGE_LOOP ( 'NONE', ( #94 ) ) ;
#151 = VERTEX_POINT ( 'NONE', #223 ) ;
#152 = ADVANCED_FACE ( 'NONE', ( #123, #28 ), #217, .T. ) ;
#153 = PERSON_AND_ORGANIZATION ( #146, #157 ) ;
#154 = APPROVAL_ROLE ( '' ) ;
#155 = MANIFOLD_SOLID_BREP ( 'Corps-Déplacer/Copier1[2]', #117 ) ;
#156 = EDGE_LOOP ( 'NONE', ( #58 ) ) ;
#157 = ORGANIZATION ( 'UNSPECIFIED', 'UNSPECIFIED', '' ) ;
#158 = PLANE ( 'NONE',  #209 ) ;
#159 = EDGE_LOOP ( 'NONE', ( #189 ) ) ;
#160 = CC_DESIGN_DATE_AND_TIME_ASSIGNMENT ( #226, #14, ( #18 ) ) ;
#161 = FACE_OUTER_BOUND ( 'NONE', #256, .T. ) ;
#162 = CLOSED_SHELL ( 'NONE', ( #168, #291, #98, #76, #106, #152, #239, #88 ) ) ;
#163 = CC_DESIGN_APPROVAL ( #111, ( #251 ) ) ;
#164 = EDGE_LOOP ( 'NONE', ( #24 ) ) ;
#165 = CC_DESIGN_DATE_AND_TIME_ASSIGNMENT ( #179, #207, ( #97 ) ) ;
#166 = CARTESIAN_POINT ( 'NONE',  ( 2.793185071074506684E-14, 0.9384999999999990017, 8.000000000000000000 ) ) ;
#167 = CARTESIAN_POINT ( 'NONE',  ( 1.735266225405037467E-13, -6.086494591762345225E-15, 49.70000000000000284 ) ) ;
#168 = ADVANCED_FACE ( 'NONE', ( #283 ), #147, .F. ) ;
#169 = AXIS2_PLACEMENT_3D ( 'NONE', #6, #7, #260 ) ;
#170 = CARTESIAN_POINT ( 'NONE',  ( 2.793185071074506684E-14, 7.037622780140751963E-33, 8.000000000000000000 ) ) ;
#171 = FACE_OUTER_BOUND ( 'NONE', #11, .T. ) ;
#172 = DIRECTION ( 'NONE',  ( -3.491481338843133355E-15, 1.224646799147353207E-16, -1.000000000000000000 ) ) ;
#173 = EDGE_LOOP ( 'NONE', ( #288 ) ) ;
#174 = CONICAL_SURFACE ( 'NONE', #273, 0.9385000000000000009, 0.5235987755982969283 ) ;
#175 = APPLICATION_PROTOCOL_DEFINITION ( 'international standard', 'config_control_design', 1994, #231 ) ;
#176 = VERTEX_POINT ( 'NONE', #36 ) ;
#177 = APPLICATION_PROTOCOL_DEFINITION ( 'international standard', 'config_control_design', 1994, #37 ) ;
#178 = PERSON_AND_ORGANIZATION_ROLE ( 'design_supplier' ) ;
#179 = DATE_AND_TIME ( #89, #267 ) ;
#180 = DIRECTION ( 'NONE',  ( -3.491481338843133355E-15, 1.224646799147353207E-16, -1.000000000000000000 ) ) ;
#181 = CALENDAR_DATE ( 2021, 30, 11 ) ;
#182 = CARTESIAN_POINT ( 'NONE',  ( 8.728703347107829444E-16, -3.061616997868381785E-17, 0.2499999999999998890 ) ) ;
#183 = UNCERTAINTY_MEASURE_WITH_UNIT (LENGTH_MEASURE( 1.000000000000000082E-05 ), #63, 'distance_accuracy_value', 'NONE');
#184 = EDGE_LOOP ( 'NONE', ( #281 ) ) ;
#185 = DIRECTION ( 'NONE',  ( 4.104272657191769810E-31, 1.000000000000000000, 1.155250050597235624E-16 ) ) ;
#186 = CONICAL_SURFACE ( 'NONE', #254, 1.200000000000001732, 0.7853981633974453924 ) ;
#187 = APPROVAL ( #234, 'UNSPECIFIED' ) ;
#188 = DIRECTION ( 'NONE',  ( -3.491481338843133355E-15, 1.224646799147353207E-16, -1.000000000000000000 ) ) ;
#189 = ORIENTED_EDGE ( 'NONE', *, *, #136, .F. ) ;
#190 = DIRECTION ( 'NONE',  ( 0.0000000000000000000, 1.000000000000000000, 0.0000000000000000000 ) ) ;
#191 = ADVANCED_FACE ( 'NONE', ( #149 ), #264, .T. ) ;
#192 = DIRECTION ( 'NONE',  ( 0.0000000000000000000, 1.000000000000000000, 0.0000000000000000000 ) ) ;
#193 = AXIS2_PLACEMENT_3D ( 'NONE', #242, #259, #10 ) ;
#194 = CARTESIAN_POINT ( 'NONE',  ( 1.745740669421566678E-13, -6.123233995736766085E-15, 50.00000000000000000 ) ) ;
#195 = ADVANCED_FACE ( 'NONE', ( #216, #9 ), #241, .T. ) ;
#196 = FACE_OUTER_BOUND ( 'NONE', #45, .T. ) ;
#197 = ORIENTED_EDGE ( 'NONE', *, *, #227, .T. ) ;
#198 = DATE_AND_TIME ( #84, #285 ) ;
#199 = AXIS2_PLACEMENT_3D ( 'NONE', #212, #274, #46 ) ;
#200 = CIRCLE ( 'NONE', #108, 0.9385000000000000009 ) ;
#201 = DIRECTION ( 'NONE',  ( 0.0000000000000000000, 0.0000000000000000000, 1.000000000000000000 ) ) ;
#202 = COORDINATED_UNIVERSAL_TIME_OFFSET ( 1, 0, .AHEAD. ) ;
#203 = PERSON_AND_ORGANIZATION ( #146, #157 ) ;
#204 = PERSON_AND_ORGANIZATION_ROLE ( 'classification_officer' ) ;
#205 = CIRCLE ( 'NONE', #83, 1.499999999999996669 ) ;
#206 = FACE_OUTER_BOUND ( 'NONE', #118, .T. ) ;
#207 = DATE_TIME_ROLE ( 'classification_date' ) ;
#208 = EDGE_LOOP ( 'NONE', ( #210 ) ) ;
#209 = AXIS2_PLACEMENT_3D ( 'NONE', #23, #301, #90 ) ;
#210 = ORIENTED_EDGE ( 'NONE', *, *, #218, .F. ) ;
#211 = LOCAL_TIME ( 9, 32, 40.00000000000000000, #202 ) ;
#212 = CARTESIAN_POINT ( 'NONE',  ( 5.935518276033326704E-14, -2.168404344971008868E-15, 17.00000000000000000 ) ) ;
#213 = DIRECTION ( 'NONE',  ( 3.491481338843133355E-15, -1.224646799147353207E-16, 1.000000000000000000 ) ) ;
#214 = CARTESIAN_POINT ( 'NONE',  ( 2.855775899875450203E-14, -1.001671346759488102E-15, 8.179267258583379885 ) ) ;
#215 = CARTESIAN_POINT ( 'NONE',  ( 1.745740669421566678E-13, -6.123233995736766085E-15, 50.00000000000000000 ) ) ;
#216 = FACE_BOUND ( 'NONE', #71, .T. ) ;
#217 = CYLINDRICAL_SURFACE ( 'NONE', #68, 1.499999999999999112 ) ;
#218 = EDGE_CURVE ( 'NONE', #80, #80, #145, .T. ) ;
#219 = CARTESIAN_POINT ( 'NONE',  ( 2.793185071074506684E-14, 7.037622780140751963E-33, 8.000000000000000000 ) ) ;
#220 = ORIENTED_EDGE ( 'NONE', *, *, #33, .T. ) ;
#221 =( NAMED_UNIT ( * ) PLANE_ANGLE_UNIT ( ) SI_UNIT ( $, .RADIAN. ) );
#222 = PRODUCT_RELATED_PRODUCT_CATEGORY ( 'detail', '', ( #131 ) ) ;
#223 = CARTESIAN_POINT ( 'NONE',  ( 1.735266225405037467E-13, 1.499999999999995559, 49.70000000000000284 ) ) ;
#224 = CIRCLE ( 'NONE', #193, 0.8653844939755820365 ) ;
#225 = DIRECTION ( 'NONE',  ( 1.000000000000000000, 0.0000000000000000000, 0.0000000000000000000 ) ) ;
#226 = DATE_AND_TIME ( #107, #3 ) ;
#227 = EDGE_CURVE ( 'NONE', #25, #25, #205, .T. ) ;
#228 = APPROVAL_PERSON_ORGANIZATION ( #248, #49, #39 ) ;
#229 = FACE_OUTER_BOUND ( 'NONE', #173, .T. ) ;
#230 = APPROVAL_ROLE ( '' ) ;
#231 = APPLICATION_CONTEXT ( 'configuration controlled 3d designs of mechanical parts and assemblies' ) ;
#232 = CARTESIAN_POINT ( 'NONE',  ( 0.0000000000000000000, 0.0000000000000000000, 0.0000000000000000000 ) ) ;
#233 = FACE_OUTER_BOUND ( 'NONE', #128, .T. ) ;
#234 = APPROVAL_STATUS ( 'not_yet_approved' ) ;
#235 = ORIENTED_EDGE ( 'NONE', *, *, #33, .F. ) ;
#236 = CC_DESIGN_APPROVAL ( #187, ( #97 ) ) ;
#237 = CARTESIAN_POINT ( 'NONE',  ( 7.313389396839873002E-14, -2.565191689876173952E-15, 20.94637973709775025 ) ) ;
#238 = CARTESIAN_POINT ( 'NONE',  ( 2.855775899875450203E-14, 0.8349999999999994094, 8.179267258583379885 ) ) ;
#239 = ADVANCED_FACE ( 'NONE', ( #171, #148 ), #186, .T. ) ;
#240 = DIRECTION ( 'NONE',  ( 3.491481338843133355E-15, -1.224646799147353207E-16, 1.000000000000000000 ) ) ;
#241 = CONICAL_SURFACE ( 'NONE', #169, 0.9384999999999990017, 0.5235987755982922653 ) ;
#242 = CARTESIAN_POINT ( 'NONE',  ( 6.056776150402963091E-14, -2.124431095542013992E-15, 17.34729635533384595 ) ) ;
#243 = CARTESIAN_POINT ( 'NONE',  ( 7.313389396839873002E-14, -2.565191689876173952E-15, 20.94637973709775025 ) ) ;
#244 = DIRECTION ( 'NONE',  ( 0.0000000000000000000, 1.000000000000000000, 0.0000000000000000000 ) ) ;
#245 = AXIS2_PLACEMENT_3D ( 'NONE', #114, #48, #244 ) ;
#246 = EDGE_LOOP ( 'NONE', ( #100 ) ) ;
#247 = MECHANICAL_CONTEXT ( 'NONE', #231, 'mechanical' ) ;
#248 = PERSON_AND_ORGANIZATION ( #146, #157 ) ;
#249 = CC_DESIGN_PERSON_AND_ORGANIZATION_ASSIGNMENT ( #294, #61, ( #18 ) ) ;
#250 = AXIS2_PLACEMENT_3D ( 'NONE', #119, #72, #66 ) ;
#251 = PRODUCT_DEFINITION_FORMATION_WITH_SPECIFIED_SOURCE ( 'ANY', '', #131, .NOT_KNOWN. ) ;
#252 = SECURITY_CLASSIFICATION_LEVEL ( 'unclassified' ) ;
#253 = EDGE_CURVE ( 'NONE', #4, #4, #224, .T. ) ;
#254 = AXIS2_PLACEMENT_3D ( 'NONE', #194, #101, #104 ) ;
#255 = FACE_OUTER_BOUND ( 'NONE', #184, .T. ) ;
#256 = EDGE_LOOP ( 'NONE', ( #197 ) ) ;
#257 = DIRECTION ( 'NONE',  ( 4.275831445896959482E-31, 1.000000000000000000, 1.224646799147353207E-16 ) ) ;
#258 = DIRECTION ( 'NONE',  ( -3.491481338843133355E-15, 1.224646799147353207E-16, -1.000000000000000000 ) ) ;
#259 = DIRECTION ( 'NONE',  ( -3.491481338843133355E-15, 1.224646799147353207E-16, -1.000000000000000000 ) ) ;
#260 = DIRECTION ( 'NONE',  ( -4.104272657191769810E-31, -1.000000000000000000, -1.155250050597235624E-16 ) ) ;
#261 = MANIFOLD_SOLID_BREP ( 'Corps-Déplacer/Copier1[1]', #162 ) ;
#262 = AXIS2_PLACEMENT_3D ( 'NONE', #60, #201, #225 ) ;
#263 = VERTEX_POINT ( 'NONE', #125 ) ;
#264 = PLANE ( 'NONE',  #122 ) ;
#265 = ORIENTED_EDGE ( 'NONE', *, *, #272, .T. ) ;
#266 = VERTEX_POINT ( 'NONE', #75 ) ;
#267 = LOCAL_TIME ( 9, 32, 40.00000000000000000, #297 ) ;
#268 = ORIENTED_EDGE ( 'NONE', *, *, #299, .T. ) ;
#269 = CARTESIAN_POINT ( 'NONE',  ( 5.935518276033326704E-14, 0.8349999999999980771, 17.00000000000000000 ) ) ;
#270 = ADVANCED_BREP_SHAPE_REPRESENTATION ( '326977', ( #261, #155, #262 ), #93 ) ;
#271 = APPROVAL_STATUS ( 'not_yet_approved' ) ;
#272 = EDGE_CURVE ( 'NONE', #176, #176, #275, .T. ) ;
#273 = AXIS2_PLACEMENT_3D ( 'NONE', #280, #30, #289 ) ;
#274 = DIRECTION ( 'NONE',  ( -3.491481338843133355E-15, 1.224646799147353207E-16, -1.000000000000000000 ) ) ;
#275 = CIRCLE ( 'NONE', #13, 1.200000000000001732 ) ;
#276 = FACE_OUTER_BOUND ( 'NONE', #47, .T. ) ;
#277 = PLANE ( 'NONE',  #67 ) ;
#278 = FACE_OUTER_BOUND ( 'NONE', #208, .T. ) ;
#279 = EDGE_LOOP ( 'NONE', ( #34 ) ) ;
#280 = CARTESIAN_POINT ( 'NONE',  ( 2.793185071074506684E-14, -9.797174393178825657E-16, 8.000000000000000000 ) ) ;
#281 = ORIENTED_EDGE ( 'NONE', *, *, #253, .T. ) ;
#282 = FACE_BOUND ( 'NONE', #279, .T. ) ;
#283 = FACE_OUTER_BOUND ( 'NONE', #150, .T. ) ;
#284 = AXIS2_PLACEMENT_3D ( 'NONE', #298, #258, #257 ) ;
#285 = LOCAL_TIME ( 9, 32, 40.00000000000000000, #15 ) ;
#286 = CIRCLE ( 'NONE', #26, 0.9384999999999990017 ) ;
#287 = VERTEX_POINT ( 'NONE', #166 ) ;
#288 = ORIENTED_EDGE ( 'NONE', *, *, #272, .F. ) ;
#289 = DIRECTION ( 'NONE',  ( 0.0000000000000000000, 1.000000000000000000, 0.0000000000000000000 ) ) ;
#290 = ORIENTED_EDGE ( 'NONE', *, *, #41, .T. ) ;
#291 = ADVANCED_FACE ( 'NONE', ( #282, #196 ), #174, .T. ) ;
#292 = CIRCLE ( 'NONE', #284, 0.7941624327025946783 ) ;
#293 = APPROVAL_STATUS ( 'not_yet_approved' ) ;
#294 = PERSON_AND_ORGANIZATION ( #146, #157 ) ;
#295 = PERSON_AND_ORGANIZATION ( #146, #157 ) ;
#296 = CC_DESIGN_SECURITY_CLASSIFICATION ( #97, ( #251 ) ) ;
#297 = COORDINATED_UNIVERSAL_TIME_OFFSET ( 1, 0, .AHEAD. ) ;
#298 = CARTESIAN_POINT ( 'NONE',  ( -5.288440529282943414E-31, 1.854935237549745500E-32, -1.514669567455060218E-16 ) ) ;
#299 = EDGE_CURVE ( 'NONE', #56, #56, #32, .T. ) ;
#300 = DIRECTION ( 'NONE',  ( -3.491481338843133355E-15, 1.224646799147353207E-16, -1.000000000000000000 ) ) ;
#301 = DIRECTION ( 'NONE',  ( 3.491481338843133355E-15, -1.224646799147353207E-16, 1.000000000000000000 ) ) ;
#302 = EDGE_LOOP ( 'NONE', ( #141 ) ) ;
#303 = EDGE_CURVE ( 'NONE', #151, #151, #87, .T. ) ;
ENDSEC;
END-ISO-10303-21;
