ISO-10303-21;
HEADER;
FILE_DESCRIPTION (( 'STEP AP203' ),
    '1' );
FILE_NAME ('326976.step',
    '2021-11-30T08:32:40',
    ( '' ),
    ( '' ),
    'SwSTEP 2.0',
    'SolidWorks 2019',
    '' );
FILE_SCHEMA (( 'CONFIG_CONTROL_DESIGN' ));
ENDSEC;

DATA;
#1 = PERSON_AND_ORGANIZATION_ROLE ( 'design_owner' ) ;
#2 = ADVANCED_FACE ( 'NONE', ( #235, #197 ), #141, .F. ) ;
#3 = EDGE_LOOP ( 'NONE', ( #191 ) ) ;
#4 = ORIENTED_EDGE ( 'NONE', *, *, #275, .T. ) ;
#5 = AXIS2_PLACEMENT_3D ( 'NONE', #174, #262, #219 ) ;
#6 = CARTESIAN_POINT ( 'NONE',  ( 6.056776150402961829E-14, -2.124431095542013598E-15, 17.34729635533384240 ) ) ;
#7 = DIRECTION ( 'NONE',  ( -3.491481338843133355E-15, 1.224646799147353207E-16, -1.000000000000000000 ) ) ;
#8 = VERTEX_POINT ( 'NONE', #155 ) ;
#9 = DIRECTION ( 'NONE',  ( -3.491481338843133355E-15, 1.224646799147353207E-16, -1.000000000000000000 ) ) ;
#10 = CARTESIAN_POINT ( 'NONE',  ( -1.665783615605663410E-31, 5.842782403641637695E-33, -4.770993896125487486E-17 ) ) ;
#11 = CIRCLE ( 'NONE', #189, 0.9234999999999990994 ) ;
#12 = CC_DESIGN_APPROVAL ( #63, ( #129 ) ) ;
#13 = CARTESIAN_POINT ( 'NONE',  ( -3.331567231211326820E-31, 1.168556480728327539E-32, -9.541987792250974973E-17 ) ) ;
#14 = PRODUCT_RELATED_PRODUCT_CATEGORY ( 'detail', '', ( #166 ) ) ;
#15 = DIRECTION ( 'NONE',  ( 4.275831445896958607E-31, 1.000000000000000000, 1.224646799147353207E-16 ) ) ;
#16 = VERTEX_POINT ( 'NONE', #208 ) ;
#17 = AXIS2_PLACEMENT_3D ( 'NONE', #35, #126, #268 ) ;
#18 = ADVANCED_FACE ( 'NONE', ( #123, #195 ), #108, .T. ) ;
#19 = AXIS2_PLACEMENT_3D ( 'NONE', #165, #113, #139 ) ;
#20 = COORDINATED_UNIVERSAL_TIME_OFFSET ( 1, 0, .AHEAD. ) ;
#21 =( LENGTH_UNIT ( ) NAMED_UNIT ( * ) SI_UNIT ( .MILLI., .METRE. ) );
#22 = COORDINATED_UNIVERSAL_TIME_OFFSET ( 1, 0, .AHEAD. ) ;
#23 = DATE_TIME_ROLE ( 'classification_date' ) ;
#24 = CYLINDRICAL_SURFACE ( 'NONE', #225, 0.9234999999999996545 ) ;
#25 = EDGE_CURVE ( 'NONE', #16, #16, #150, .T. ) ;
#26 = CALENDAR_DATE ( 2021, 30, 11 ) ;
#27 = CARTESIAN_POINT ( 'NONE',  ( 2.793185071074506684E-14, -9.797174393178825657E-16, 8.000000000000000000 ) ) ;
#28 = DATE_AND_TIME ( #172, #152 ) ;
#29 = ORIENTED_EDGE ( 'NONE', *, *, #290, .F. ) ;
#30 = DIRECTION ( 'NONE',  ( -3.491481338843133355E-15, 1.224646799147353207E-16, -1.000000000000000000 ) ) ;
#31 = CONICAL_SURFACE ( 'NONE', #232, 0.9235000000000000986, 0.5235987755983007030 ) ;
#32 = FACE_OUTER_BOUND ( 'NONE', #92, .T. ) ;
#33 = CARTESIAN_POINT ( 'NONE',  ( 0.0000000000000000000, 0.0000000000000000000, 0.0000000000000000000 ) ) ;
#34 = DIRECTION ( 'NONE',  ( 0.0000000000000000000, 1.000000000000000000, 0.0000000000000000000 ) ) ;
#35 = CARTESIAN_POINT ( 'NONE',  ( 1.745740669421566678E-13, -6.123233995736766085E-15, 50.00000000000000000 ) ) ;
#36 = ADVANCED_FACE ( 'NONE', ( #114, #303 ), #24, .T. ) ;
#37 = FACE_OUTER_BOUND ( 'NONE', #210, .T. ) ;
#38 = DIRECTION ( 'NONE',  ( 0.0000000000000000000, 1.000000000000000000, 0.0000000000000000000 ) ) ;
#39 = PERSON_AND_ORGANIZATION ( #273, #196 ) ;
#40 = AXIS2_PLACEMENT_3D ( 'NONE', #295, #59, #272 ) ;
#41 =( NAMED_UNIT ( * ) SI_UNIT ( $, .STERADIAN. ) SOLID_ANGLE_UNIT ( ) );
#42 = EDGE_LOOP ( 'NONE', ( #217 ) ) ;
#43 = PERSON_AND_ORGANIZATION_ROLE ( 'creator' ) ;
#44 = APPROVAL ( #135, 'UNSPECIFIED' ) ;
#45 = APPROVAL_STATUS ( 'not_yet_approved' ) ;
#46 = ORIENTED_EDGE ( 'NONE', *, *, #25, .T. ) ;
#47 = APPLICATION_PROTOCOL_DEFINITION ( 'international standard', 'config_control_design', 1994, #122 ) ;
#48 = ORIENTED_EDGE ( 'NONE', *, *, #82, .T. ) ;
#49 =( NAMED_UNIT ( * ) PLANE_ANGLE_UNIT ( ) SI_UNIT ( $, .RADIAN. ) );
#50 = EDGE_LOOP ( 'NONE', ( #121 ) ) ;
#51 = MANIFOLD_SOLID_BREP ( 'Corps-Déplacer/Copier1[1]', #274 ) ;
#52 = ORIENTED_EDGE ( 'NONE', *, *, #170, .T. ) ;
#53 = DIRECTION ( 'NONE',  ( 0.0000000000000000000, 1.000000000000000000, 0.0000000000000000000 ) ) ;
#54 = DIRECTION ( 'NONE',  ( -3.491481338843133355E-15, 1.224646799147353207E-16, -1.000000000000000000 ) ) ;
#55 = MANIFOLD_SOLID_BREP ( 'Corps-Déplacer/Copier1[2]', #149 ) ;
#56 = FACE_BOUND ( 'NONE', #215, .T. ) ;
#57 = EDGE_CURVE ( 'NONE', #297, #297, #184, .T. ) ;
#58 = DIRECTION ( 'NONE',  ( -3.491481338843133355E-15, 1.224646799147353207E-16, -1.000000000000000000 ) ) ;
#59 = DIRECTION ( 'NONE',  ( 3.491481338843133355E-15, -1.224646799147353207E-16, 1.000000000000000000 ) ) ;
#60 = FACE_OUTER_BOUND ( 'NONE', #280, .T. ) ;
#61 = CARTESIAN_POINT ( 'NONE',  ( 1.745740669421566678E-13, 1.199999999999995515, 50.00000000000000000 ) ) ;
#62 = CIRCLE ( 'NONE', #17, 1.200000000000001732 ) ;
#63 = APPROVAL ( #45, 'UNSPECIFIED' ) ;
#64 = DATE_AND_TIME ( #112, #209 ) ;
#65 = PERSON_AND_ORGANIZATION ( #273, #196 ) ;
#66 = EDGE_LOOP ( 'NONE', ( #74 ) ) ;
#67 = ORIENTED_EDGE ( 'NONE', *, *, #275, .F. ) ;
#68 = COORDINATED_UNIVERSAL_TIME_OFFSET ( 1, 0, .AHEAD. ) ;
#69 = AXIS2_PLACEMENT_3D ( 'NONE', #27, #202, #53 ) ;
#70 = ORIENTED_EDGE ( 'NONE', *, *, #290, .T. ) ;
#71 = CC_DESIGN_PERSON_AND_ORGANIZATION_ASSIGNMENT ( #279, #221, ( #248 ) ) ;
#72 = CC_DESIGN_APPROVAL ( #161, ( #211 ) ) ;
#73 = ORIENTED_EDGE ( 'NONE', *, *, #277, .T. ) ;
#74 = ORIENTED_EDGE ( 'NONE', *, *, #82, .F. ) ;
#75 = DIRECTION ( 'NONE',  ( 0.0000000000000000000, -1.000000000000000000, 0.0000000000000000000 ) ) ;
#76 = CIRCLE ( 'NONE', #84, 0.7791624327025945540 ) ;
#77 = FACE_OUTER_BOUND ( 'NONE', #3, .T. ) ;
#78 = CC_DESIGN_DATE_AND_TIME_ASSIGNMENT ( #28, #163, ( #211 ) ) ;
#79 = CARTESIAN_POINT ( 'NONE',  ( 7.343091158800647039E-14, -2.575609665567360318E-15, 21.03144896439201972 ) ) ;
#80 = CARTESIAN_POINT ( 'NONE',  ( 1.735266225405037467E-13, 1.499999999999995559, 49.70000000000000284 ) ) ;
#81 = DIRECTION ( 'NONE',  ( 3.491481338843133355E-15, -1.224646799147353207E-16, 1.000000000000000000 ) ) ;
#82 = EDGE_CURVE ( 'NONE', #85, #85, #62, .T. ) ;
#83 = CARTESIAN_POINT ( 'NONE',  ( 2.793185071074506684E-14, -9.797174393178825657E-16, 8.000000000000000000 ) ) ;
#84 = AXIS2_PLACEMENT_3D ( 'NONE', #13, #105, #181 ) ;
#85 = VERTEX_POINT ( 'NONE', #61 ) ;
#86 = ADVANCED_FACE ( 'NONE', ( #128, #292 ), #220, .T. ) ;
#87 = PERSON_AND_ORGANIZATION ( #273, #196 ) ;
#88 = ADVANCED_FACE ( 'NONE', ( #56, #180 ), #201, .T. ) ;
#89 = PERSON_AND_ORGANIZATION_ROLE ( 'creator' ) ;
#90 = AXIS2_PLACEMENT_3D ( 'NONE', #79, #245, #75 ) ;
#91 = APPROVAL_DATE_TIME ( #97, #63 ) ;
#92 = EDGE_LOOP ( 'NONE', ( #198 ) ) ;
#93 = ADVANCED_BREP_SHAPE_REPRESENTATION ( '326976', ( #51, #55, #19 ), #110 ) ;
#94 = PRODUCT_DEFINITION_SHAPE ( 'NONE', 'NONE',  #211 ) ;
#95 = EDGE_LOOP ( 'NONE', ( #29 ) ) ;
#96 = APPROVAL_ROLE ( '' ) ;
#97 = DATE_AND_TIME ( #26, #186 ) ;
#98 = ORIENTED_EDGE ( 'NONE', *, *, #277, .F. ) ;
#99 = EDGE_LOOP ( 'NONE', ( #67 ) ) ;
#100 = DIRECTION ( 'NONE',  ( -3.491481338843133355E-15, 1.224646799147353207E-16, -1.000000000000000000 ) ) ;
#101 = UNCERTAINTY_MEASURE_WITH_UNIT (LENGTH_MEASURE( 1.000000000000000082E-05 ), #21, 'distance_accuracy_value', 'NONE');
#102 = VERTEX_POINT ( 'NONE', #291 ) ;
#103 = AXIS2_PLACEMENT_3D ( 'NONE', #83, #246, #179 ) ;
#104 = DIRECTION ( 'NONE',  ( -3.491481338843133355E-15, 1.224646799147353207E-16, -1.000000000000000000 ) ) ;
#105 = DIRECTION ( 'NONE',  ( -3.491481338843133355E-15, 1.224646799147353207E-16, -1.000000000000000000 ) ) ;
#106 = CARTESIAN_POINT ( 'NONE',  ( 1.745740669421566678E-13, 8.998558695971067645E-33, 50.00000000000000000 ) ) ;
#107 = PLANE ( 'NONE',  #260 ) ;
#108 = CONICAL_SURFACE ( 'NONE', #5, 0.9234999999999990994, 0.5235987755982930425 ) ;
#109 = ADVANCED_FACE ( 'NONE', ( #176, #266 ), #115, .T. ) ;
#110 =( GEOMETRIC_REPRESENTATION_CONTEXT ( 3 ) GLOBAL_UNCERTAINTY_ASSIGNED_CONTEXT ( ( #101 ) ) GLOBAL_UNIT_ASSIGNED_CONTEXT ( ( #21, #49, #41 ) ) REPRESENTATION_CONTEXT ( 'NONE', 'WORKASPACE' ) );
#111 = LOCAL_TIME ( 9, 32, 40.00000000000000000, #288 ) ;
#112 = CALENDAR_DATE ( 2021, 30, 11 ) ;
#113 = DIRECTION ( 'NONE',  ( 0.0000000000000000000, 0.0000000000000000000, 1.000000000000000000 ) ) ;
#114 = FACE_OUTER_BOUND ( 'NONE', #42, .T. ) ;
#115 = CONICAL_SURFACE ( 'NONE', #190, 1.200000000000001732, 0.7853981633974453924 ) ;
#116 = CARTESIAN_POINT ( 'NONE',  ( 0.0000000000000000000, 0.0000000000000000000, 0.0000000000000000000 ) ) ;
#117 = VERTEX_POINT ( 'NONE', #234 ) ;
#118 = COORDINATED_UNIVERSAL_TIME_OFFSET ( 1, 0, .AHEAD. ) ;
#119 = APPLICATION_PROTOCOL_DEFINITION ( 'international standard', 'config_control_design', 1994, #133 ) ;
#120 = CC_DESIGN_DATE_AND_TIME_ASSIGNMENT ( #261, #23, ( #129 ) ) ;
#121 = ORIENTED_EDGE ( 'NONE', *, *, #147, .F. ) ;
#122 = APPLICATION_CONTEXT ( 'configuration controlled 3d designs of mechanical parts and assemblies' ) ;
#123 = FACE_BOUND ( 'NONE', #99, .T. ) ;
#124 = DIRECTION ( 'NONE',  ( 4.275831445896958607E-31, 1.000000000000000000, 1.224646799147353454E-16 ) ) ;
#125 = CARTESIAN_POINT ( 'NONE',  ( 2.793185071074506684E-14, -9.797174393178825657E-16, 8.000000000000000000 ) ) ;
#126 = DIRECTION ( 'NONE',  ( -3.491481338843133355E-15, 1.224646799147353207E-16, -1.000000000000000000 ) ) ;
#127 = CARTESIAN_POINT ( 'NONE',  ( 0.0000000000000000000, 0.7791624327025945540, 0.0000000000000000000 ) ) ;
#128 = FACE_OUTER_BOUND ( 'NONE', #175, .T. ) ;
#129 = SECURITY_CLASSIFICATION ( '', '', #154 ) ;
#130 = ADVANCED_FACE ( 'NONE', ( #156, #32 ), #199, .T. ) ;
#131 = CARTESIAN_POINT ( 'NONE',  ( 7.343091158800647039E-14, -2.575609665567360318E-15, 21.03144896439201972 ) ) ;
#132 = CARTESIAN_POINT ( 'NONE',  ( 8.728703347107829444E-16, -3.061616997868381785E-17, 0.2499999999999998890 ) ) ;
#133 = APPLICATION_CONTEXT ( 'configuration controlled 3d designs of mechanical parts and assemblies' ) ;
#134 = CC_DESIGN_PERSON_AND_ORGANIZATION_ASSIGNMENT ( #87, #1, ( #166 ) ) ;
#135 = APPROVAL_STATUS ( 'not_yet_approved' ) ;
#136 = AXIS2_PLACEMENT_3D ( 'NONE', #271, #222, #34 ) ;
#137 = APPROVAL_PERSON_ORGANIZATION ( #65, #63, #282 ) ;
#138 = ORIENTED_EDGE ( 'NONE', *, *, #147, .T. ) ;
#139 = DIRECTION ( 'NONE',  ( 1.000000000000000000, 0.0000000000000000000, 0.0000000000000000000 ) ) ;
#140 = CARTESIAN_POINT ( 'NONE',  ( 5.935518276033326704E-14, -2.168404344971008868E-15, 17.00000000000000000 ) ) ;
#141 = TOROIDAL_SURFACE ( 'NONE', #285, 2.819999999999999840, 2.000000000000000000 ) ;
#142 = EDGE_CURVE ( 'NONE', #160, #160, #177, .T. ) ;
#143 = AXIS2_PLACEMENT_3D ( 'NONE', #106, #54, #15 ) ;
#144 = EDGE_LOOP ( 'NONE', ( #98 ) ) ;
#145 = APPROVAL_STATUS ( 'not_yet_approved' ) ;
#146 = ORIENTED_EDGE ( 'NONE', *, *, #142, .F. ) ;
#147 = EDGE_CURVE ( 'NONE', #8, #8, #238, .T. ) ;
#148 = ADVANCED_FACE ( 'NONE', ( #77 ), #107, .T. ) ;
#149 = CLOSED_SHELL ( 'NONE', ( #204, #18, #36, #148 ) ) ;
#150 = CIRCLE ( 'NONE', #230, 0.8503844939755809129 ) ;
#151 = CARTESIAN_POINT ( 'NONE',  ( 0.0000000000000000000, 0.0000000000000000000, 0.0000000000000000000 ) ) ;
#152 = LOCAL_TIME ( 9, 32, 40.00000000000000000, #68 ) ;
#153 = CARTESIAN_POINT ( 'NONE',  ( 1.745740669421566678E-13, -6.123233995736766085E-15, 50.00000000000000000 ) ) ;
#154 = SECURITY_CLASSIFICATION_LEVEL ( 'unclassified' ) ;
#155 = CARTESIAN_POINT ( 'NONE',  ( 5.935518276033326704E-14, 0.8199999999999978417, 17.00000000000000000 ) ) ;
#156 = FACE_OUTER_BOUND ( 'NONE', #95, .T. ) ;
#157 = DIRECTION ( 'NONE',  ( -4.275831445896958607E-31, -1.000000000000000000, -1.224646799147353207E-16 ) ) ;
#158 = FACE_OUTER_BOUND ( 'NONE', #66, .T. ) ;
#159 = DIRECTION ( 'NONE',  ( 0.0000000000000000000, 1.000000000000000000, 0.0000000000000000000 ) ) ;
#160 = VERTEX_POINT ( 'NONE', #80 ) ;
#161 = APPROVAL ( #145, 'UNSPECIFIED' ) ;
#162 = CIRCLE ( 'NONE', #103, 0.9235000000000000986 ) ;
#163 = DATE_TIME_ROLE ( 'creation_date' ) ;
#164 = PERSON_AND_ORGANIZATION ( #273, #196 ) ;
#165 = CARTESIAN_POINT ( 'NONE',  ( 0.0000000000000000000, 0.0000000000000000000, 0.0000000000000000000 ) ) ;
#166 = PRODUCT ( '326976', '326976', '', ( #236 ) ) ;
#167 = CALENDAR_DATE ( 2021, 30, 11 ) ;
#168 = EDGE_LOOP ( 'NONE', ( #46 ) ) ;
#169 = PERSON_AND_ORGANIZATION ( #273, #196 ) ;
#170 = EDGE_CURVE ( 'NONE', #102, #102, #162, .T. ) ;
#171 = EDGE_LOOP ( 'NONE', ( #70 ) ) ;
#172 = CALENDAR_DATE ( 2021, 30, 11 ) ;
#173 = AXIS2_PLACEMENT_3D ( 'NONE', #228, #203, #159 ) ;
#174 = CARTESIAN_POINT ( 'NONE',  ( 8.728703347107829444E-16, -3.061616997868381785E-17, 0.2499999999999998890 ) ) ;
#175 = EDGE_LOOP ( 'NONE', ( #138 ) ) ;
#176 = FACE_OUTER_BOUND ( 'NONE', #287, .T. ) ;
#177 = CIRCLE ( 'NONE', #136, 1.500000000000001554 ) ;
#178 = DESIGN_CONTEXT ( 'detailed design', #133, 'design' ) ;
#179 = DIRECTION ( 'NONE',  ( 0.0000000000000000000, 1.000000000000000000, 0.0000000000000000000 ) ) ;
#180 = FACE_OUTER_BOUND ( 'NONE', #171, .T. ) ;
#181 = DIRECTION ( 'NONE',  ( 4.275831445896958607E-31, 1.000000000000000000, 1.224646799147353207E-16 ) ) ;
#182 = CC_DESIGN_PERSON_AND_ORGANIZATION_ASSIGNMENT ( #284, #263, ( #129 ) ) ;
#183 = PLANE ( 'NONE',  #40 ) ;
#184 = CIRCLE ( 'NONE', #69, 0.9235000000000000986 ) ;
#185 = DIRECTION ( 'NONE',  ( -3.491481338843133355E-15, 1.224646799147353207E-16, -1.000000000000000000 ) ) ;
#186 = LOCAL_TIME ( 9, 32, 40.00000000000000000, #118 ) ;
#187 = DIRECTION ( 'NONE',  ( -4.275831445896958607E-31, -1.000000000000000000, -1.224646799147353207E-16 ) ) ;
#188 = ADVANCED_FACE ( 'NONE', ( #205, #37 ), #31, .T. ) ;
#189 = AXIS2_PLACEMENT_3D ( 'NONE', #132, #104, #229 ) ;
#190 = AXIS2_PLACEMENT_3D ( 'NONE', #153, #9, #243 ) ;
#191 = ORIENTED_EDGE ( 'NONE', *, *, #57, .F. ) ;
#192 = ADVANCED_FACE ( 'NONE', ( #267 ), #183, .F. ) ;
#193 = EDGE_LOOP ( 'NONE', ( #255 ) ) ;
#194 = CALENDAR_DATE ( 2021, 30, 11 ) ;
#195 = FACE_OUTER_BOUND ( 'NONE', #257, .T. ) ;
#196 = ORGANIZATION ( 'UNSPECIFIED', 'UNSPECIFIED', '' ) ;
#197 = FACE_OUTER_BOUND ( 'NONE', #168, .T. ) ;
#198 = ORIENTED_EDGE ( 'NONE', *, *, #142, .T. ) ;
#199 = CYLINDRICAL_SURFACE ( 'NONE', #247, 1.499999999999999112 ) ;
#200 = CARTESIAN_POINT ( 'NONE',  ( 2.793185071074506684E-14, 0.9234999999999990994, 8.000000000000000000 ) ) ;
#201 = CONICAL_SURFACE ( 'NONE', #90, 1.499999999999996669, 0.1745329251994260922 ) ;
#202 = DIRECTION ( 'NONE',  ( -3.491481338843133355E-15, 1.224646799147353207E-16, -1.000000000000000000 ) ) ;
#203 = DIRECTION ( 'NONE',  ( -3.491481338843133355E-15, 1.224646799147353207E-16, -1.000000000000000000 ) ) ;
#204 = ADVANCED_FACE ( 'NONE', ( #60 ), #227, .F. ) ;
#205 = FACE_BOUND ( 'NONE', #264, .T. ) ;
#206 = DIRECTION ( 'NONE',  ( -3.491481338843133355E-15, 1.224646799147353207E-16, -1.000000000000000000 ) ) ;
#207 = CIRCLE ( 'NONE', #276, 1.499999999999996669 ) ;
#208 = CARTESIAN_POINT ( 'NONE',  ( 6.056776150402961829E-14, 0.8503844939755788035, 17.34729635533384240 ) ) ;
#209 = LOCAL_TIME ( 9, 32, 40.00000000000000000, #20 ) ;
#210 = EDGE_LOOP ( 'NONE', ( #258 ) ) ;
#211 = PRODUCT_DEFINITION ( 'UNKNOWN', '', #248, #178 ) ;
#212 = APPROVAL_DATE_TIME ( #278, #161 ) ;
#213 = AXIS2_PLACEMENT_3D ( 'NONE', #252, #185, #251 ) ;
#214 = DIRECTION ( 'NONE',  ( -3.491481338843133355E-15, 1.224646799147353207E-16, -1.000000000000000000 ) ) ;
#215 = EDGE_LOOP ( 'NONE', ( #242 ) ) ;
#216 = CARTESIAN_POINT ( 'NONE',  ( 8.728703347107833388E-16, 0.9234999999999990994, 0.2500000000000000000 ) ) ;
#217 = ORIENTED_EDGE ( 'NONE', *, *, #299, .F. ) ;
#218 = AXIS2_PLACEMENT_3D ( 'NONE', #10, #81, #157 ) ;
#219 = DIRECTION ( 'NONE',  ( -4.170936533594451341E-31, -1.000000000000000000, -1.174014263655122458E-16 ) ) ;
#220 = CYLINDRICAL_SURFACE ( 'NONE', #296, 0.8200000000000001732 ) ;
#221 = PERSON_AND_ORGANIZATION_ROLE ( 'design_supplier' ) ;
#222 = DIRECTION ( 'NONE',  ( -3.491481338843133355E-15, 1.224646799147353207E-16, -1.000000000000000000 ) ) ;
#223 = DIRECTION ( 'NONE',  ( -3.491481338843133355E-15, 1.224646799147353207E-16, -1.000000000000000000 ) ) ;
#224 = VERTEX_POINT ( 'NONE', #256 ) ;
#225 = AXIS2_PLACEMENT_3D ( 'NONE', #116, #214, #240 ) ;
#226 = DIRECTION ( 'NONE',  ( 4.275831445896958607E-31, 1.000000000000000000, 1.224646799147353207E-16 ) ) ;
#227 = PLANE ( 'NONE',  #218 ) ;
#228 = CARTESIAN_POINT ( 'NONE',  ( 5.935518276033326704E-14, -2.081899558550500280E-15, 17.00000000000000000 ) ) ;
#229 = DIRECTION ( 'NONE',  ( 4.170936533594451341E-31, 1.000000000000000000, 1.174014263655122458E-16 ) ) ;
#230 = AXIS2_PLACEMENT_3D ( 'NONE', #6, #100, #237 ) ;
#231 = CC_DESIGN_PERSON_AND_ORGANIZATION_ASSIGNMENT ( #164, #89, ( #248 ) ) ;
#232 = AXIS2_PLACEMENT_3D ( 'NONE', #125, #58, #294 ) ;
#233 = APPROVAL_ROLE ( '' ) ;
#234 = CARTESIAN_POINT ( 'NONE',  ( 7.343091158800647039E-14, 1.499999999999994005, 21.03144896439201972 ) ) ;
#235 = FACE_OUTER_BOUND ( 'NONE', #50, .T. ) ;
#236 = MECHANICAL_CONTEXT ( 'NONE', #122, 'mechanical' ) ;
#237 = DIRECTION ( 'NONE',  ( 0.0000000000000000000, 1.000000000000000000, 0.0000000000000000000 ) ) ;
#238 = CIRCLE ( 'NONE', #173, 0.8199999999999998401 ) ;
#239 = SHAPE_DEFINITION_REPRESENTATION ( #94, #93 ) ;
#240 = DIRECTION ( 'NONE',  ( 4.275831445896957731E-31, 1.000000000000000000, 1.224646799147352961E-16 ) ) ;
#241 = ORIENTED_EDGE ( 'NONE', *, *, #299, .T. ) ;
#242 = ORIENTED_EDGE ( 'NONE', *, *, #25, .F. ) ;
#243 = DIRECTION ( 'NONE',  ( 0.0000000000000000000, 1.000000000000000000, 0.0000000000000000000 ) ) ;
#244 = VERTEX_POINT ( 'NONE', #127 ) ;
#245 = DIRECTION ( 'NONE',  ( 3.491481338843133355E-15, -1.224646799147353207E-16, 1.000000000000000000 ) ) ;
#246 = DIRECTION ( 'NONE',  ( -3.491481338843133355E-15, 1.224646799147353207E-16, -1.000000000000000000 ) ) ;
#247 = AXIS2_PLACEMENT_3D ( 'NONE', #33, #7, #124 ) ;
#248 = PRODUCT_DEFINITION_FORMATION_WITH_SPECIFIED_SOURCE ( 'ANY', '', #166, .NOT_KNOWN. ) ;
#249 = PLANE ( 'NONE',  #143 ) ;
#250 = ADVANCED_FACE ( 'NONE', ( #158 ), #249, .F. ) ;
#251 = DIRECTION ( 'NONE',  ( 0.0000000000000000000, 1.000000000000000000, 0.0000000000000000000 ) ) ;
#252 = CARTESIAN_POINT ( 'NONE',  ( 2.855775899875449572E-14, -1.001671346759487905E-15, 8.179267258583378108 ) ) ;
#253 = CC_DESIGN_PERSON_AND_ORGANIZATION_ASSIGNMENT ( #281, #43, ( #211 ) ) ;
#254 = LOCAL_TIME ( 9, 32, 40.00000000000000000, #22 ) ;
#255 = ORIENTED_EDGE ( 'NONE', *, *, #57, .T. ) ;
#256 = CARTESIAN_POINT ( 'NONE',  ( 2.855775899875449572E-14, 0.8199999999999995071, 8.179267258583378108 ) ) ;
#257 = EDGE_LOOP ( 'NONE', ( #241 ) ) ;
#258 = ORIENTED_EDGE ( 'NONE', *, *, #170, .F. ) ;
#259 = VERTEX_POINT ( 'NONE', #216 ) ;
#260 = AXIS2_PLACEMENT_3D ( 'NONE', #269, #293, #187 ) ;
#261 = DATE_AND_TIME ( #167, #111 ) ;
#262 = DIRECTION ( 'NONE',  ( 3.491481338843133355E-15, -1.224646799147353207E-16, 1.000000000000000000 ) ) ;
#263 = PERSON_AND_ORGANIZATION_ROLE ( 'classification_officer' ) ;
#264 = EDGE_LOOP ( 'NONE', ( #73 ) ) ;
#265 = APPROVAL_PERSON_ORGANIZATION ( #169, #161, #96 ) ;
#266 = FACE_BOUND ( 'NONE', #301, .T. ) ;
#267 = FACE_OUTER_BOUND ( 'NONE', #283, .T. ) ;
#268 = DIRECTION ( 'NONE',  ( 0.0000000000000000000, 1.000000000000000000, 0.0000000000000000000 ) ) ;
#269 = CARTESIAN_POINT ( 'NONE',  ( 2.793185071074506684E-14, 6.925140796441113190E-33, 8.000000000000000000 ) ) ;
#270 = APPROVAL_PERSON_ORGANIZATION ( #39, #44, #233 ) ;
#271 = CARTESIAN_POINT ( 'NONE',  ( 1.735266225405037467E-13, -6.086494591762345225E-15, 49.70000000000000284 ) ) ;
#272 = DIRECTION ( 'NONE',  ( -4.275831445896958607E-31, -1.000000000000000000, -1.224646799147353207E-16 ) ) ;
#273 = PERSON ( 'UNSPECIFIED', 'UNSPECIFIED', 'UNSPECIFIED', ('UNSPECIFIED'), ('UNSPECIFIED'), ('UNSPECIFIED') ) ;
#274 = CLOSED_SHELL ( 'NONE', ( #192, #188, #86, #2, #88, #130, #109, #250 ) ) ;
#275 = EDGE_CURVE ( 'NONE', #244, #244, #76, .T. ) ;
#276 = AXIS2_PLACEMENT_3D ( 'NONE', #131, #206, #38 ) ;
#277 = EDGE_CURVE ( 'NONE', #224, #224, #298, .T. ) ;
#278 = DATE_AND_TIME ( #194, #254 ) ;
#279 = PERSON_AND_ORGANIZATION ( #273, #196 ) ;
#280 = EDGE_LOOP ( 'NONE', ( #4 ) ) ;
#281 = PERSON_AND_ORGANIZATION ( #273, #196 ) ;
#282 = APPROVAL_ROLE ( '' ) ;
#283 = EDGE_LOOP ( 'NONE', ( #52 ) ) ;
#284 = PERSON_AND_ORGANIZATION ( #273, #196 ) ;
#285 = AXIS2_PLACEMENT_3D ( 'NONE', #140, #30, #289 ) ;
#286 = CC_DESIGN_SECURITY_CLASSIFICATION ( #129, ( #248 ) ) ;
#287 = EDGE_LOOP ( 'NONE', ( #146 ) ) ;
#288 = COORDINATED_UNIVERSAL_TIME_OFFSET ( 1, 0, .AHEAD. ) ;
#289 = DIRECTION ( 'NONE',  ( 4.275831445896958607E-31, 1.000000000000000000, 1.224646799147353207E-16 ) ) ;
#290 = EDGE_CURVE ( 'NONE', #117, #117, #207, .T. ) ;
#291 = CARTESIAN_POINT ( 'NONE',  ( 2.793185071074506684E-14, 0.9234999999999990994, 8.000000000000000000 ) ) ;
#292 = FACE_OUTER_BOUND ( 'NONE', #144, .T. ) ;
#293 = DIRECTION ( 'NONE',  ( 3.491481338843133355E-15, -1.224646799147353207E-16, 1.000000000000000000 ) ) ;
#294 = DIRECTION ( 'NONE',  ( 0.0000000000000000000, 1.000000000000000000, 0.0000000000000000000 ) ) ;
#295 = CARTESIAN_POINT ( 'NONE',  ( 2.793185071074506684E-14, 6.925140796441113190E-33, 8.000000000000000000 ) ) ;
#296 = AXIS2_PLACEMENT_3D ( 'NONE', #151, #223, #226 ) ;
#297 = VERTEX_POINT ( 'NONE', #200 ) ;
#298 = CIRCLE ( 'NONE', #213, 0.8200000000000005063 ) ;
#299 = EDGE_CURVE ( 'NONE', #259, #259, #11, .T. ) ;
#300 = APPROVAL_DATE_TIME ( #64, #44 ) ;
#301 = EDGE_LOOP ( 'NONE', ( #48 ) ) ;
#302 = CC_DESIGN_APPROVAL ( #44, ( #248 ) ) ;
#303 = FACE_OUTER_BOUND ( 'NONE', #193, .T. ) ;
ENDSEC;
END-ISO-10303-21;
