ISO-10303-21;
HEADER;
FILE_DESCRIPTION (( 'STEP AP203' ),
    '1' );
FILE_NAME ('326975.step',
    '2021-11-30T08:32:39',
    ( '' ),
    ( '' ),
    'SwSTEP 2.0',
    'SolidWorks 2019',
    '' );
FILE_SCHEMA (( 'CONFIG_CONTROL_DESIGN' ));
ENDSEC;

DATA;
#1 = DIRECTION ( 'NONE',  ( 0.0000000000000000000, -1.000000000000000000, 0.0000000000000000000 ) ) ;
#2 =( NAMED_UNIT ( * ) SI_UNIT ( $, .STERADIAN. ) SOLID_ANGLE_UNIT ( ) );
#3 = DIRECTION ( 'NONE',  ( -4.435071835088630303E-31, -1.000000000000000000, -1.248361741491658582E-16 ) ) ;
#4 = APPROVAL_ROLE ( '' ) ;
#5 = EDGE_CURVE ( 'NONE', #202, #202, #54, .T. ) ;
#6 = CARTESIAN_POINT ( 'NONE',  ( 1.735266225405037467E-13, 1.499999999999995559, 49.70000000000000284 ) ) ;
#7 = APPROVAL_DATE_TIME ( #116, #203 ) ;
#8 = EDGE_LOOP ( 'NONE', ( #283 ) ) ;
#9 = CALENDAR_DATE ( 2021, 30, 11 ) ;
#10 = ORIENTED_EDGE ( 'NONE', *, *, #114, .F. ) ;
#11 = ORIENTED_EDGE ( 'NONE', *, *, #60, .T. ) ;
#12 = EDGE_CURVE ( 'NONE', #65, #65, #212, .T. ) ;
#13 = ORIENTED_EDGE ( 'NONE', *, *, #216, .T. ) ;
#14 = CARTESIAN_POINT ( 'NONE',  ( 2.444036937190193349E-14, 6.512706856209103443E-33, 7.000000000000000000 ) ) ;
#15 = APPLICATION_CONTEXT ( 'configuration controlled 3d designs of mechanical parts and assemblies' ) ;
#16 = CARTESIAN_POINT ( 'NONE',  ( 5.935518276033326704E-14, -2.081899558550500280E-15, 17.00000000000000000 ) ) ;
#17 = AXIS2_PLACEMENT_3D ( 'NONE', #130, #228, #229 ) ;
#18 = CC_DESIGN_APPROVAL ( #203, ( #71 ) ) ;
#19 = CARTESIAN_POINT ( 'NONE',  ( 8.728703347107829444E-16, -3.061616997868381785E-17, 0.2499999999999998890 ) ) ;
#20 = FACE_OUTER_BOUND ( 'NONE', #287, .T. ) ;
#21 = AXIS2_PLACEMENT_3D ( 'NONE', #217, #243, #36 ) ;
#22 = FACE_OUTER_BOUND ( 'NONE', #284, .T. ) ;
#23 = CARTESIAN_POINT ( 'NONE',  ( 2.444036937190193349E-14, -8.572527594031473190E-16, 7.000000000000000000 ) ) ;
#24 = APPROVAL_DATE_TIME ( #279, #146 ) ;
#25 = CARTESIAN_POINT ( 'NONE',  ( 7.451997619323488541E-14, -2.613808909768377782E-15, 21.34336946447100658 ) ) ;
#26 = FACE_OUTER_BOUND ( 'NONE', #97, .T. ) ;
#27 = CIRCLE ( 'NONE', #58, 0.7241624327025948382 ) ;
#28 = UNCERTAINTY_MEASURE_WITH_UNIT (LENGTH_MEASURE( 1.000000000000000082E-05 ), #296, 'distance_accuracy_value', 'NONE');
#29 = APPLICATION_CONTEXT ( 'configuration controlled 3d designs of mechanical parts and assemblies' ) ;
#30 = COORDINATED_UNIVERSAL_TIME_OFFSET ( 1, 0, .AHEAD. ) ;
#31 = ORIENTED_EDGE ( 'NONE', *, *, #252, .T. ) ;
#32 = MECHANICAL_CONTEXT ( 'NONE', #15, 'mechanical' ) ;
#33 = CIRCLE ( 'NONE', #175, 1.499999999999996669 ) ;
#34 = CC_DESIGN_APPROVAL ( #146, ( #109 ) ) ;
#35 = APPROVAL_STATUS ( 'not_yet_approved' ) ;
#36 = DIRECTION ( 'NONE',  ( 0.0000000000000000000, 1.000000000000000000, 0.0000000000000000000 ) ) ;
#37 = LOCAL_TIME ( 9, 32, 39.00000000000000000, #191 ) ;
#38 = FACE_BOUND ( 'NONE', #79, .T. ) ;
#39 = CIRCLE ( 'NONE', #63, 0.7650000000000004574 ) ;
#40 = CARTESIAN_POINT ( 'NONE',  ( 1.745740669421566678E-13, -6.123233995736766085E-15, 50.00000000000000000 ) ) ;
#41 = FACE_OUTER_BOUND ( 'NONE', #165, .T. ) ;
#42 = CARTESIAN_POINT ( 'NONE',  ( 1.745740669421566678E-13, 1.199999999999995515, 50.00000000000000000 ) ) ;
#43 = CIRCLE ( 'NONE', #120, 0.7953844939755810861 ) ;
#44 = SECURITY_CLASSIFICATION_LEVEL ( 'unclassified' ) ;
#45 = DIRECTION ( 'NONE',  ( 0.0000000000000000000, 1.000000000000000000, 0.0000000000000000000 ) ) ;
#46 = CARTESIAN_POINT ( 'NONE',  ( 1.745740669421566678E-13, -6.123233995736766085E-15, 50.00000000000000000 ) ) ;
#47 = PERSON_AND_ORGANIZATION ( #209, #107 ) ;
#48 = CC_DESIGN_PERSON_AND_ORGANIZATION_ASSIGNMENT ( #231, #199, ( #71 ) ) ;
#49 = COORDINATED_UNIVERSAL_TIME_OFFSET ( 1, 0, .AHEAD. ) ;
#50 = EDGE_LOOP ( 'NONE', ( #211 ) ) ;
#51 = CALENDAR_DATE ( 2021, 30, 11 ) ;
#52 = EDGE_LOOP ( 'NONE', ( #181 ) ) ;
#53 = DATE_TIME_ROLE ( 'classification_date' ) ;
#54 = CIRCLE ( 'NONE', #148, 0.8684999999999991616 ) ;
#55 = ORIENTED_EDGE ( 'NONE', *, *, #5, .T. ) ;
#56 = EDGE_LOOP ( 'NONE', ( #94 ) ) ;
#57 = CARTESIAN_POINT ( 'NONE',  ( 7.451997619323488541E-14, -2.613808909768377782E-15, 21.34336946447100658 ) ) ;
#58 = AXIS2_PLACEMENT_3D ( 'NONE', #101, #245, #218 ) ;
#59 = LOCAL_TIME ( 9, 32, 39.00000000000000000, #49 ) ;
#60 = EDGE_CURVE ( 'NONE', #247, #247, #139, .T. ) ;
#61 = DIRECTION ( 'NONE',  ( -3.491481338843133355E-15, 1.224646799147353207E-16, -1.000000000000000000 ) ) ;
#62 = ADVANCED_FACE ( 'NONE', ( #297, #125 ), #104, .T. ) ;
#63 = AXIS2_PLACEMENT_3D ( 'NONE', #155, #223, #45 ) ;
#64 = DIRECTION ( 'NONE',  ( 0.0000000000000000000, 1.000000000000000000, 0.0000000000000000000 ) ) ;
#65 = VERTEX_POINT ( 'NONE', #6 ) ;
#66 = VERTEX_POINT ( 'NONE', #110 ) ;
#67 = FACE_BOUND ( 'NONE', #162, .T. ) ;
#68 = PERSON_AND_ORGANIZATION ( #209, #107 ) ;
#69 = VERTEX_POINT ( 'NONE', #222 ) ;
#70 = EDGE_CURVE ( 'NONE', #119, #119, #184, .T. ) ;
#71 = PRODUCT_DEFINITION_FORMATION_WITH_SPECIFIED_SOURCE ( 'ANY', '', #260, .NOT_KNOWN. ) ;
#72 = CARTESIAN_POINT ( 'NONE',  ( 8.728703347107829444E-16, -3.061616997868381785E-17, 0.2499999999999998890 ) ) ;
#73 = DIRECTION ( 'NONE',  ( -3.491481338843133355E-15, 1.224646799147353207E-16, -1.000000000000000000 ) ) ;
#74 = FACE_OUTER_BOUND ( 'NONE', #158, .T. ) ;
#75 = AXIS2_PLACEMENT_3D ( 'NONE', #14, #100, #289 ) ;
#76 = ORIENTED_EDGE ( 'NONE', *, *, #238, .T. ) ;
#77 = APPROVAL_STATUS ( 'not_yet_approved' ) ;
#78 = ADVANCED_BREP_SHAPE_REPRESENTATION ( '326975', ( #221, #117, #214 ), #220 ) ;
#79 = EDGE_LOOP ( 'NONE', ( #186 ) ) ;
#80 = AXIS2_PLACEMENT_3D ( 'NONE', #72, #251, #3 ) ;
#81 = EDGE_LOOP ( 'NONE', ( #11 ) ) ;
#82 = DIRECTION ( 'NONE',  ( 0.0000000000000000000, 1.000000000000000000, 0.0000000000000000000 ) ) ;
#83 = PRODUCT_RELATED_PRODUCT_CATEGORY ( 'detail', '', ( #260 ) ) ;
#84 = AXIS2_PLACEMENT_3D ( 'NONE', #132, #200, #225 ) ;
#85 = DIRECTION ( 'NONE',  ( -3.491481338843133355E-15, 1.224646799147353207E-16, -1.000000000000000000 ) ) ;
#86 = CARTESIAN_POINT ( 'NONE',  ( 7.451997619323488541E-14, 1.499999999999994005, 21.34336946447100658 ) ) ;
#87 = FACE_BOUND ( 'NONE', #239, .T. ) ;
#88 = DIRECTION ( 'NONE',  ( -3.491481338843133355E-15, 1.224646799147353207E-16, -1.000000000000000000 ) ) ;
#89 = DIRECTION ( 'NONE',  ( -3.491481338843133355E-15, 1.224646799147353207E-16, -1.000000000000000000 ) ) ;
#90 = DATE_AND_TIME ( #51, #59 ) ;
#91 = FACE_BOUND ( 'NONE', #81, .T. ) ;
#92 = CC_DESIGN_PERSON_AND_ORGANIZATION_ASSIGNMENT ( #281, #112, ( #109 ) ) ;
#93 = FACE_OUTER_BOUND ( 'NONE', #261, .T. ) ;
#94 = ORIENTED_EDGE ( 'NONE', *, *, #134, .F. ) ;
#95 = AXIS2_PLACEMENT_3D ( 'NONE', #108, #135, #246 ) ;
#96 = APPROVAL_PERSON_ORGANIZATION ( #141, #203, #4 ) ;
#97 = EDGE_LOOP ( 'NONE', ( #188 ) ) ;
#98 = PRODUCT_DEFINITION_SHAPE ( 'NONE', 'NONE',  #109 ) ;
#99 = CC_DESIGN_PERSON_AND_ORGANIZATION_ASSIGNMENT ( #47, #118, ( #71 ) ) ;
#100 = DIRECTION ( 'NONE',  ( 3.491481338843133355E-15, -1.224646799147353207E-16, 1.000000000000000000 ) ) ;
#101 = CARTESIAN_POINT ( 'NONE',  ( -3.096396501686995402E-31, 1.086069692681925863E-32, -8.868432052719934665E-17 ) ) ;
#102 = DIRECTION ( 'NONE',  ( 0.0000000000000000000, 1.000000000000000000, 0.0000000000000000000 ) ) ;
#103 = CONICAL_SURFACE ( 'NONE', #167, 0.8685000000000000497, 0.5235987755982985936 ) ;
#104 = CYLINDRICAL_SURFACE ( 'NONE', #153, 1.499999999999999112 ) ;
#105 = FACE_OUTER_BOUND ( 'NONE', #122, .T. ) ;
#106 = DIRECTION ( 'NONE',  ( -3.491481338843133355E-15, 1.224646799147353207E-16, -1.000000000000000000 ) ) ;
#107 = ORGANIZATION ( 'UNSPECIFIED', 'UNSPECIFIED', '' ) ;
#108 = CARTESIAN_POINT ( 'NONE',  ( 1.745740669421566678E-13, 8.998558695971067645E-33, 50.00000000000000000 ) ) ;
#109 = PRODUCT_DEFINITION ( 'UNKNOWN', '', #71, #140 ) ;
#110 = CARTESIAN_POINT ( 'NONE',  ( 2.444036937190193349E-14, 0.8684999999999991616, 7.000000000000000000 ) ) ;
#111 = CARTESIAN_POINT ( 'NONE',  ( 0.0000000000000000000, 0.0000000000000000000, 0.0000000000000000000 ) ) ;
#112 = PERSON_AND_ORGANIZATION_ROLE ( 'creator' ) ;
#113 = DIRECTION ( 'NONE',  ( 0.0000000000000000000, 1.000000000000000000, 0.0000000000000000000 ) ) ;
#114 = EDGE_CURVE ( 'NONE', #294, #294, #27, .T. ) ;
#115 = DIRECTION ( 'NONE',  ( -3.491481338843133355E-15, 1.224646799147353207E-16, -1.000000000000000000 ) ) ;
#116 = DATE_AND_TIME ( #253, #143 ) ;
#117 = MANIFOLD_SOLID_BREP ( 'Corps-Déplacer/Copier1[2]', #230 ) ;
#118 = PERSON_AND_ORGANIZATION_ROLE ( 'creator' ) ;
#119 = VERTEX_POINT ( 'NONE', #205 ) ;
#120 = AXIS2_PLACEMENT_3D ( 'NONE', #303, #88, #113 ) ;
#121 = EDGE_CURVE ( 'NONE', #66, #66, #299, .T. ) ;
#122 = EDGE_LOOP ( 'NONE', ( #164 ) ) ;
#123 = DATE_AND_TIME ( #276, #128 ) ;
#124 = ADVANCED_FACE ( 'NONE', ( #105 ), #290, .F. ) ;
#125 = FACE_OUTER_BOUND ( 'NONE', #50, .T. ) ;
#126 = DIRECTION ( 'NONE',  ( -3.491481338843133355E-15, 1.224646799147353207E-16, -1.000000000000000000 ) ) ;
#127 = CC_DESIGN_PERSON_AND_ORGANIZATION_ASSIGNMENT ( #256, #254, ( #260 ) ) ;
#128 = LOCAL_TIME ( 9, 32, 39.00000000000000000, #178 ) ;
#129 = DIRECTION ( 'NONE',  ( -3.491481338843133355E-15, 1.224646799147353207E-16, -1.000000000000000000 ) ) ;
#130 = CARTESIAN_POINT ( 'NONE',  ( 2.444036937190193349E-14, 6.512706856209103443E-33, 7.000000000000000000 ) ) ;
#131 = APPROVAL ( #35, 'UNSPECIFIED' ) ;
#132 = CARTESIAN_POINT ( 'NONE',  ( 5.935518276033326704E-14, -2.168404344971008868E-15, 17.00000000000000000 ) ) ;
#133 = AXIS2_PLACEMENT_3D ( 'NONE', #111, #106, #177 ) ;
#134 = EDGE_CURVE ( 'NONE', #173, #173, #242, .T. ) ;
#135 = DIRECTION ( 'NONE',  ( -3.491481338843133355E-15, 1.224646799147353207E-16, -1.000000000000000000 ) ) ;
#136 = CARTESIAN_POINT ( 'NONE',  ( 0.0000000000000000000, 0.0000000000000000000, 0.0000000000000000000 ) ) ;
#137 = FACE_OUTER_BOUND ( 'NONE', #56, .T. ) ;
#138 = ADVANCED_FACE ( 'NONE', ( #38, #166 ), #163, .T. ) ;
#139 = CIRCLE ( 'NONE', #259, 1.200000000000001732 ) ;
#140 = DESIGN_CONTEXT ( 'detailed design', #29, 'design' ) ;
#141 = PERSON_AND_ORGANIZATION ( #209, #107 ) ;
#142 = ORIENTED_EDGE ( 'NONE', *, *, #60, .F. ) ;
#143 = LOCAL_TIME ( 9, 32, 39.00000000000000000, #277 ) ;
#144 = ORIENTED_EDGE ( 'NONE', *, *, #216, .F. ) ;
#145 = SHAPE_DEFINITION_REPRESENTATION ( #98, #78 ) ;
#146 = APPROVAL ( #185, 'UNSPECIFIED' ) ;
#147 = DIRECTION ( 'NONE',  ( 0.0000000000000000000, 1.000000000000000000, 0.0000000000000000000 ) ) ;
#148 = AXIS2_PLACEMENT_3D ( 'NONE', #19, #126, #149 ) ;
#149 = DIRECTION ( 'NONE',  ( 4.435071835088630303E-31, 1.000000000000000000, 1.248361741491658582E-16 ) ) ;
#150 =( NAMED_UNIT ( * ) PLANE_ANGLE_UNIT ( ) SI_UNIT ( $, .RADIAN. ) );
#151 = CYLINDRICAL_SURFACE ( 'NONE', #262, 0.8684999999999996056 ) ;
#152 = FACE_OUTER_BOUND ( 'NONE', #280, .T. ) ;
#153 = AXIS2_PLACEMENT_3D ( 'NONE', #295, #85, #169 ) ;
#154 = CARTESIAN_POINT ( 'NONE',  ( 0.0000000000000000000, 0.0000000000000000000, 0.0000000000000000000 ) ) ;
#155 = CARTESIAN_POINT ( 'NONE',  ( 2.506627765991136237E-14, -8.792066668447528551E-16, 7.179267258583378108 ) ) ;
#156 = CARTESIAN_POINT ( 'NONE',  ( -1.548198250843497701E-31, 5.430348463409629316E-33, -4.434216026359967333E-17 ) ) ;
#157 = AXIS2_PLACEMENT_3D ( 'NONE', #215, #129, #102 ) ;
#158 = EDGE_LOOP ( 'NONE', ( #142 ) ) ;
#159 = CALENDAR_DATE ( 2021, 30, 11 ) ;
#160 = ADVANCED_FACE ( 'NONE', ( #74 ), #224, .F. ) ;
#161 = ORIENTED_EDGE ( 'NONE', *, *, #121, .F. ) ;
#162 = EDGE_LOOP ( 'NONE', ( #10 ) ) ;
#163 = CONICAL_SURFACE ( 'NONE', #285, 1.499999999999996669, 0.1745329251994259534 ) ;
#164 = ORIENTED_EDGE ( 'NONE', *, *, #121, .T. ) ;
#165 = EDGE_LOOP ( 'NONE', ( #257 ) ) ;
#166 = FACE_OUTER_BOUND ( 'NONE', #210, .T. ) ;
#167 = AXIS2_PLACEMENT_3D ( 'NONE', #23, #89, #196 ) ;
#168 = CARTESIAN_POINT ( 'NONE',  ( 2.444036937190193349E-14, 0.8684999999999991616, 7.000000000000000000 ) ) ;
#169 = DIRECTION ( 'NONE',  ( 4.275831445896958607E-31, 1.000000000000000000, 1.224646799147353454E-16 ) ) ;
#170 = APPROVAL_PERSON_ORGANIZATION ( #208, #146, #282 ) ;
#171 = DIRECTION ( 'NONE',  ( 0.0000000000000000000, 1.000000000000000000, 0.0000000000000000000 ) ) ;
#172 = DIRECTION ( 'NONE',  ( 0.0000000000000000000, 1.000000000000000000, 0.0000000000000000000 ) ) ;
#173 = VERTEX_POINT ( 'NONE', #168 ) ;
#174 = CYLINDRICAL_SURFACE ( 'NONE', #133, 0.7650000000000002354 ) ;
#175 = AXIS2_PLACEMENT_3D ( 'NONE', #25, #73, #172 ) ;
#176 = ADVANCED_FACE ( 'NONE', ( #137 ), #180, .T. ) ;
#177 = DIRECTION ( 'NONE',  ( 4.275831445896958607E-31, 1.000000000000000000, 1.224646799147353207E-16 ) ) ;
#178 = COORDINATED_UNIVERSAL_TIME_OFFSET ( 1, 0, .AHEAD. ) ;
#179 = DIRECTION ( 'NONE',  ( 1.000000000000000000, 0.0000000000000000000, 0.0000000000000000000 ) ) ;
#180 = PLANE ( 'NONE',  #17 ) ;
#181 = ORIENTED_EDGE ( 'NONE', *, *, #12, .F. ) ;
#182 = CC_DESIGN_DATE_AND_TIME_ASSIGNMENT ( #123, #53, ( #193 ) ) ;
#183 = PERSON_AND_ORGANIZATION_ROLE ( 'classification_officer' ) ;
#184 = CIRCLE ( 'NONE', #291, 0.7649999999999999023 ) ;
#185 = APPROVAL_STATUS ( 'not_yet_approved' ) ;
#186 = ORIENTED_EDGE ( 'NONE', *, *, #238, .F. ) ;
#187 = DATE_AND_TIME ( #159, #37 ) ;
#188 = ORIENTED_EDGE ( 'NONE', *, *, #70, .F. ) ;
#189 = ADVANCED_FACE ( 'NONE', ( #22, #93 ), #174, .T. ) ;
#190 = ORIENTED_EDGE ( 'NONE', *, *, #70, .T. ) ;
#191 = COORDINATED_UNIVERSAL_TIME_OFFSET ( 1, 0, .AHEAD. ) ;
#192 = ADVANCED_FACE ( 'NONE', ( #41, #250 ), #151, .T. ) ;
#193 = SECURITY_CLASSIFICATION ( '', '', #44 ) ;
#194 = VERTEX_POINT ( 'NONE', #197 ) ;
#195 = DIRECTION ( 'NONE',  ( 3.491481338843133355E-15, -1.224646799147353207E-16, 1.000000000000000000 ) ) ;
#196 = DIRECTION ( 'NONE',  ( 0.0000000000000000000, 1.000000000000000000, 0.0000000000000000000 ) ) ;
#197 = CARTESIAN_POINT ( 'NONE',  ( 2.506627765991136237E-14, 0.7649999999999995692, 7.179267258583378108 ) ) ;
#198 = PLANE ( 'NONE',  #207 ) ;
#199 = PERSON_AND_ORGANIZATION_ROLE ( 'design_supplier' ) ;
#200 = DIRECTION ( 'NONE',  ( -3.491481338843133355E-15, 1.224646799147353207E-16, -1.000000000000000000 ) ) ;
#201 = CC_DESIGN_APPROVAL ( #131, ( #193 ) ) ;
#202 = VERTEX_POINT ( 'NONE', #269 ) ;
#203 = APPROVAL ( #77, 'UNSPECIFIED' ) ;
#204 = APPLICATION_PROTOCOL_DEFINITION ( 'international standard', 'config_control_design', 1994, #29 ) ;
#205 = CARTESIAN_POINT ( 'NONE',  ( 5.935518276033326704E-14, 0.7649999999999979039, 17.00000000000000000 ) ) ;
#206 = EDGE_LOOP ( 'NONE', ( #255 ) ) ;
#207 = AXIS2_PLACEMENT_3D ( 'NONE', #156, #195, #270 ) ;
#208 = PERSON_AND_ORGANIZATION ( #209, #107 ) ;
#209 = PERSON ( 'UNSPECIFIED', 'UNSPECIFIED', 'UNSPECIFIED', ('UNSPECIFIED'), ('UNSPECIFIED'), ('UNSPECIFIED') ) ;
#210 = EDGE_LOOP ( 'NONE', ( #31 ) ) ;
#211 = ORIENTED_EDGE ( 'NONE', *, *, #12, .T. ) ;
#212 = CIRCLE ( 'NONE', #21, 1.500000000000001554 ) ;
#213 = CLOSED_SHELL ( 'NONE', ( #124, #226, #189, #266, #138, #62, #302, #160 ) ) ;
#214 = AXIS2_PLACEMENT_3D ( 'NONE', #154, #233, #179 ) ;
#215 = CARTESIAN_POINT ( 'NONE',  ( 2.444036937190193349E-14, -8.572527594031473190E-16, 7.000000000000000000 ) ) ;
#216 = EDGE_CURVE ( 'NONE', #194, #194, #39, .T. ) ;
#217 = CARTESIAN_POINT ( 'NONE',  ( 1.735266225405037467E-13, -6.086494591762345225E-15, 49.70000000000000284 ) ) ;
#218 = DIRECTION ( 'NONE',  ( 4.275831445896958607E-31, 1.000000000000000000, 1.224646799147353454E-16 ) ) ;
#219 = AXIS2_PLACEMENT_3D ( 'NONE', #264, #61, #82 ) ;
#220 =( GEOMETRIC_REPRESENTATION_CONTEXT ( 3 ) GLOBAL_UNCERTAINTY_ASSIGNED_CONTEXT ( ( #28 ) ) GLOBAL_UNIT_ASSIGNED_CONTEXT ( ( #296, #150, #2 ) ) REPRESENTATION_CONTEXT ( 'NONE', 'WORKASPACE' ) );
#221 = MANIFOLD_SOLID_BREP ( 'Corps-Déplacer/Copier1[1]', #213 ) ;
#222 = CARTESIAN_POINT ( 'NONE',  ( 6.056776150402961829E-14, 0.7953844939755788657, 17.34729635533384240 ) ) ;
#223 = DIRECTION ( 'NONE',  ( -3.491481338843133355E-15, 1.224646799147353207E-16, -1.000000000000000000 ) ) ;
#224 = PLANE ( 'NONE',  #95 ) ;
#225 = DIRECTION ( 'NONE',  ( 4.275831445896958607E-31, 1.000000000000000000, 1.224646799147353207E-16 ) ) ;
#226 = ADVANCED_FACE ( 'NONE', ( #87, #20 ), #103, .T. ) ;
#227 = APPLICATION_PROTOCOL_DEFINITION ( 'international standard', 'config_control_design', 1994, #15 ) ;
#228 = DIRECTION ( 'NONE',  ( 3.491481338843133355E-15, -1.224646799147353207E-16, 1.000000000000000000 ) ) ;
#229 = DIRECTION ( 'NONE',  ( -4.275831445896958607E-31, -1.000000000000000000, -1.224646799147353207E-16 ) ) ;
#230 = CLOSED_SHELL ( 'NONE', ( #258, #293, #192, #176 ) ) ;
#231 = PERSON_AND_ORGANIZATION ( #209, #107 ) ;
#232 = EDGE_LOOP ( 'NONE', ( #237 ) ) ;
#233 = DIRECTION ( 'NONE',  ( 0.0000000000000000000, 0.0000000000000000000, 1.000000000000000000 ) ) ;
#234 = EDGE_LOOP ( 'NONE', ( #76 ) ) ;
#235 = PERSON_AND_ORGANIZATION ( #209, #107 ) ;
#236 = APPROVAL_PERSON_ORGANIZATION ( #235, #131, #240 ) ;
#237 = ORIENTED_EDGE ( 'NONE', *, *, #252, .F. ) ;
#238 = EDGE_CURVE ( 'NONE', #69, #69, #43, .T. ) ;
#239 = EDGE_LOOP ( 'NONE', ( #13 ) ) ;
#240 = APPROVAL_ROLE ( '' ) ;
#241 = CC_DESIGN_PERSON_AND_ORGANIZATION_ASSIGNMENT ( #68, #183, ( #193 ) ) ;
#242 = CIRCLE ( 'NONE', #219, 0.8685000000000000497 ) ;
#243 = DIRECTION ( 'NONE',  ( -3.491481338843133355E-15, 1.224646799147353207E-16, -1.000000000000000000 ) ) ;
#244 = CONICAL_SURFACE ( 'NONE', #300, 1.200000000000001732, 0.7853981633974453924 ) ;
#245 = DIRECTION ( 'NONE',  ( -3.491481338843133355E-15, 1.224646799147353207E-16, -1.000000000000000000 ) ) ;
#246 = DIRECTION ( 'NONE',  ( 4.275831445896958607E-31, 1.000000000000000000, 1.224646799147353207E-16 ) ) ;
#247 = VERTEX_POINT ( 'NONE', #42 ) ;
#248 = FACE_OUTER_BOUND ( 'NONE', #52, .T. ) ;
#249 = LOCAL_TIME ( 9, 32, 39.00000000000000000, #30 ) ;
#250 = FACE_OUTER_BOUND ( 'NONE', #206, .T. ) ;
#251 = DIRECTION ( 'NONE',  ( 3.491481338843133355E-15, -1.224646799147353207E-16, 1.000000000000000000 ) ) ;
#252 = EDGE_CURVE ( 'NONE', #298, #298, #33, .T. ) ;
#253 = CALENDAR_DATE ( 2021, 30, 11 ) ;
#254 = PERSON_AND_ORGANIZATION_ROLE ( 'design_owner' ) ;
#255 = ORIENTED_EDGE ( 'NONE', *, *, #134, .T. ) ;
#256 = PERSON_AND_ORGANIZATION ( #209, #107 ) ;
#257 = ORIENTED_EDGE ( 'NONE', *, *, #5, .F. ) ;
#258 = ADVANCED_FACE ( 'NONE', ( #278 ), #198, .F. ) ;
#259 = AXIS2_PLACEMENT_3D ( 'NONE', #40, #265, #64 ) ;
#260 = PRODUCT ( '326975', '326975', '', ( #32 ) ) ;
#261 = EDGE_LOOP ( 'NONE', ( #144 ) ) ;
#262 = AXIS2_PLACEMENT_3D ( 'NONE', #136, #275, #272 ) ;
#263 = CC_DESIGN_SECURITY_CLASSIFICATION ( #193, ( #71 ) ) ;
#264 = CARTESIAN_POINT ( 'NONE',  ( 2.444036937190193349E-14, -8.572527594031473190E-16, 7.000000000000000000 ) ) ;
#265 = DIRECTION ( 'NONE',  ( -3.491481338843133355E-15, 1.224646799147353207E-16, -1.000000000000000000 ) ) ;
#266 = ADVANCED_FACE ( 'NONE', ( #26, #301 ), #268, .F. ) ;
#267 = DIRECTION ( 'NONE',  ( -3.491481338843133355E-15, 1.224646799147353207E-16, -1.000000000000000000 ) ) ;
#268 = TOROIDAL_SURFACE ( 'NONE', #84, 2.765000000000000124, 2.000000000000000000 ) ;
#269 = CARTESIAN_POINT ( 'NONE',  ( 8.728703347107833388E-16, 0.8684999999999991616, 0.2500000000000000000 ) ) ;
#270 = DIRECTION ( 'NONE',  ( -4.275831445896958607E-31, -1.000000000000000000, -1.224646799147353207E-16 ) ) ;
#271 = CARTESIAN_POINT ( 'NONE',  ( -4.276423536147513034E-47, 0.7241624327025948382, 0.0000000000000000000 ) ) ;
#272 = DIRECTION ( 'NONE',  ( 4.275831445896958607E-31, 1.000000000000000000, 1.224646799147353207E-16 ) ) ;
#273 = CONICAL_SURFACE ( 'NONE', #80, 0.8684999999999991616, 0.5235987755982923764 ) ;
#274 = DATE_TIME_ROLE ( 'creation_date' ) ;
#275 = DIRECTION ( 'NONE',  ( -3.491481338843133355E-15, 1.224646799147353207E-16, -1.000000000000000000 ) ) ;
#276 = CALENDAR_DATE ( 2021, 30, 11 ) ;
#277 = COORDINATED_UNIVERSAL_TIME_OFFSET ( 1, 0, .AHEAD. ) ;
#278 = FACE_OUTER_BOUND ( 'NONE', #8, .T. ) ;
#279 = DATE_AND_TIME ( #9, #249 ) ;
#280 = EDGE_LOOP ( 'NONE', ( #55 ) ) ;
#281 = PERSON_AND_ORGANIZATION ( #209, #107 ) ;
#282 = APPROVAL_ROLE ( '' ) ;
#283 = ORIENTED_EDGE ( 'NONE', *, *, #114, .T. ) ;
#284 = EDGE_LOOP ( 'NONE', ( #190 ) ) ;
#285 = AXIS2_PLACEMENT_3D ( 'NONE', #57, #292, #1 ) ;
#286 = CC_DESIGN_DATE_AND_TIME_ASSIGNMENT ( #90, #274, ( #109 ) ) ;
#287 = EDGE_LOOP ( 'NONE', ( #161 ) ) ;
#288 = APPROVAL_DATE_TIME ( #187, #131 ) ;
#289 = DIRECTION ( 'NONE',  ( -4.275831445896958607E-31, -1.000000000000000000, -1.224646799147353207E-16 ) ) ;
#290 = PLANE ( 'NONE',  #75 ) ;
#291 = AXIS2_PLACEMENT_3D ( 'NONE', #16, #267, #147 ) ;
#292 = DIRECTION ( 'NONE',  ( 3.491481338843133355E-15, -1.224646799147353207E-16, 1.000000000000000000 ) ) ;
#293 = ADVANCED_FACE ( 'NONE', ( #67, #152 ), #273, .T. ) ;
#294 = VERTEX_POINT ( 'NONE', #271 ) ;
#295 = CARTESIAN_POINT ( 'NONE',  ( 0.0000000000000000000, 0.0000000000000000000, 0.0000000000000000000 ) ) ;
#296 =( LENGTH_UNIT ( ) NAMED_UNIT ( * ) SI_UNIT ( .MILLI., .METRE. ) );
#297 = FACE_OUTER_BOUND ( 'NONE', #232, .T. ) ;
#298 = VERTEX_POINT ( 'NONE', #86 ) ;
#299 = CIRCLE ( 'NONE', #157, 0.8685000000000000497 ) ;
#300 = AXIS2_PLACEMENT_3D ( 'NONE', #46, #115, #171 ) ;
#301 = FACE_OUTER_BOUND ( 'NONE', #234, .T. ) ;
#302 = ADVANCED_FACE ( 'NONE', ( #248, #91 ), #244, .T. ) ;
#303 = CARTESIAN_POINT ( 'NONE',  ( 6.056776150402961829E-14, -2.124431095542013598E-15, 17.34729635533384240 ) ) ;
ENDSEC;
END-ISO-10303-21;
