ISO-10303-21;
HEADER;
FILE_DESCRIPTION (( 'STEP AP203' ),
    '1' );
FILE_NAME ('326974.step',
    '2021-11-30T08:32:39',
    ( '' ),
    ( '' ),
    'SwSTEP 2.0',
    'SolidWorks 2019',
    '' );
FILE_SCHEMA (( 'CONFIG_CONTROL_DESIGN' ));
ENDSEC;

DATA;
#1 = AXIS2_PLACEMENT_3D ( 'NONE', #300, #251, #85 ) ;
#2 = EDGE_LOOP ( 'NONE', ( #256 ) ) ;
#3 = CC_DESIGN_DATE_AND_TIME_ASSIGNMENT ( #117, #195, ( #79 ) ) ;
#4 = COORDINATED_UNIVERSAL_TIME_OFFSET ( 1, 0, .AHEAD. ) ;
#5 = APPROVAL_STATUS ( 'not_yet_approved' ) ;
#6 = EDGE_LOOP ( 'NONE', ( #65 ) ) ;
#7 = EDGE_LOOP ( 'NONE', ( #139 ) ) ;
#8 = PERSON_AND_ORGANIZATION ( #149, #285 ) ;
#9 = CIRCLE ( 'NONE', #292, 0.8435000000000000275 ) ;
#10 = DIRECTION ( 'NONE',  ( 0.0000000000000000000, 1.000000000000000000, 0.0000000000000000000 ) ) ;
#11 = COORDINATED_UNIVERSAL_TIME_OFFSET ( 1, 0, .AHEAD. ) ;
#12 = EDGE_LOOP ( 'NONE', ( #154 ) ) ;
#13 = CARTESIAN_POINT ( 'NONE',  ( 1.745740669421566678E-13, -6.123233995736766085E-15, 50.00000000000000000 ) ) ;
#14 = VERTEX_POINT ( 'NONE', #131 ) ;
#15 = ADVANCED_FACE ( 'NONE', ( #77, #196 ), #278, .F. ) ;
#16 = DIRECTION ( 'NONE',  ( 3.491481338843133355E-15, -1.224646799147353207E-16, 1.000000000000000000 ) ) ;
#17 = LOCAL_TIME ( 9, 32, 39.00000000000000000, #233 ) ;
#18 = DIRECTION ( 'NONE',  ( -3.491481338843133355E-15, 1.224646799147353207E-16, -1.000000000000000000 ) ) ;
#19 = CARTESIAN_POINT ( 'NONE',  ( 2.444036937190193349E-14, 0.8434999999999992504, 7.000000000000000000 ) ) ;
#20 = CLOSED_SHELL ( 'NONE', ( #265, #124, #238, #75 ) ) ;
#21 = PRODUCT_DEFINITION ( 'UNKNOWN', '', #181, #245 ) ;
#22 = ORIENTED_EDGE ( 'NONE', *, *, #88, .F. ) ;
#23 = ADVANCED_FACE ( 'NONE', ( #237 ), #130, .F. ) ;
#24 = AXIS2_PLACEMENT_3D ( 'NONE', #34, #293, #52 ) ;
#25 = APPROVAL_PERSON_ORGANIZATION ( #231, #248, #76 ) ;
#26 = APPROVAL_DATE_TIME ( #168, #208 ) ;
#27 = EDGE_LOOP ( 'NONE', ( #43 ) ) ;
#28 = CALENDAR_DATE ( 2021, 30, 11 ) ;
#29 = CARTESIAN_POINT ( 'NONE',  ( 0.0000000000000000000, 0.0000000000000000000, 0.0000000000000000000 ) ) ;
#30 = DIRECTION ( 'NONE',  ( 4.275831445896958607E-31, 1.000000000000000000, 1.224646799147353454E-16 ) ) ;
#31 = PERSON_AND_ORGANIZATION_ROLE ( 'creator' ) ;
#32 = DIRECTION ( 'NONE',  ( -3.491481338843133355E-15, 1.224646799147353207E-16, -1.000000000000000000 ) ) ;
#33 = DIRECTION ( 'NONE',  ( 0.0000000000000000000, 1.000000000000000000, 0.0000000000000000000 ) ) ;
#34 = CARTESIAN_POINT ( 'NONE',  ( 0.0000000000000000000, 0.0000000000000000000, 0.0000000000000000000 ) ) ;
#35 = DIRECTION ( 'NONE',  ( 4.275831445896958607E-31, 1.000000000000000000, 1.224646799147353207E-16 ) ) ;
#36 = CARTESIAN_POINT ( 'NONE',  ( 5.586370142149013368E-14, 0.7399999999999979927, 16.00000000000000000 ) ) ;
#37 = ADVANCED_FACE ( 'NONE', ( #94, #50 ), #127, .T. ) ;
#38 = CARTESIAN_POINT ( 'NONE',  ( 2.506627765991136237E-14, -8.792066668447528551E-16, 7.179267258583378108 ) ) ;
#39 = CARTESIAN_POINT ( 'NONE',  ( 2.444036937190193349E-14, 0.8434999999999992504, 7.000000000000000000 ) ) ;
#40 = CARTESIAN_POINT ( 'NONE',  ( 2.444036937190193349E-14, -8.572527594031473190E-16, 7.000000000000000000 ) ) ;
#41 = LOCAL_TIME ( 9, 32, 39.00000000000000000, #91 ) ;
#42 = CC_DESIGN_DATE_AND_TIME_ASSIGNMENT ( #215, #236, ( #21 ) ) ;
#43 = ORIENTED_EDGE ( 'NONE', *, *, #166, .T. ) ;
#44 = EDGE_LOOP ( 'NONE', ( #118 ) ) ;
#45 = PERSON_AND_ORGANIZATION_ROLE ( 'design_supplier' ) ;
#46 = ORIENTED_EDGE ( 'NONE', *, *, #210, .F. ) ;
#47 = MANIFOLD_SOLID_BREP ( 'Corps-Déplacer/Copier1[1]', #186 ) ;
#48 = AXIS2_PLACEMENT_3D ( 'NONE', #303, #270, #59 ) ;
#49 = SHAPE_DEFINITION_REPRESENTATION ( #60, #105 ) ;
#50 = FACE_OUTER_BOUND ( 'NONE', #209, .T. ) ;
#51 = DATE_AND_TIME ( #28, #41 ) ;
#52 = DIRECTION ( 'NONE',  ( 4.275831445896958607E-31, 1.000000000000000000, 1.224646799147353207E-16 ) ) ;
#53 = AXIS2_PLACEMENT_3D ( 'NONE', #101, #74, #269 ) ;
#54 = DIRECTION ( 'NONE',  ( 0.0000000000000000000, 0.0000000000000000000, 1.000000000000000000 ) ) ;
#55 = DIRECTION ( 'NONE',  ( 4.275831445896958607E-31, 1.000000000000000000, 1.224646799147353207E-16 ) ) ;
#56 = DIRECTION ( 'NONE',  ( 4.275831445896958607E-31, 1.000000000000000000, 1.224646799147353207E-16 ) ) ;
#57 = DIRECTION ( 'NONE',  ( 3.491481338843133355E-15, -1.224646799147353207E-16, 1.000000000000000000 ) ) ;
#58 = LOCAL_TIME ( 9, 32, 39.00000000000000000, #11 ) ;
#59 = DIRECTION ( 'NONE',  ( 0.0000000000000000000, 1.000000000000000000, 0.0000000000000000000 ) ) ;
#60 = PRODUCT_DEFINITION_SHAPE ( 'NONE', 'NONE',  #21 ) ;
#61 = DIRECTION ( 'NONE',  ( -3.491481338843133355E-15, 1.224646799147353207E-16, -1.000000000000000000 ) ) ;
#62 = CARTESIAN_POINT ( 'NONE',  ( 0.0000000000000000000, 0.0000000000000000000, 0.0000000000000000000 ) ) ;
#63 = CARTESIAN_POINT ( 'NONE',  ( 7.152352422040464847E-14, 1.499999999999994005, 20.48515150996145096 ) ) ;
#64 = FACE_OUTER_BOUND ( 'NONE', #12, .T. ) ;
#65 = ORIENTED_EDGE ( 'NONE', *, *, #210, .T. ) ;
#66 = AXIS2_PLACEMENT_3D ( 'NONE', #103, #32, #35 ) ;
#67 = EDGE_LOOP ( 'NONE', ( #113 ) ) ;
#68 = EDGE_CURVE ( 'NONE', #184, #184, #203, .T. ) ;
#69 = APPROVAL_ROLE ( '' ) ;
#70 = APPROVAL_DATE_TIME ( #213, #248 ) ;
#71 = EDGE_LOOP ( 'NONE', ( #283 ) ) ;
#72 = ORIENTED_EDGE ( 'NONE', *, *, #276, .F. ) ;
#73 = CALENDAR_DATE ( 2021, 30, 11 ) ;
#74 = DIRECTION ( 'NONE',  ( -3.491481338843133355E-15, 1.224646799147353207E-16, -1.000000000000000000 ) ) ;
#75 = ADVANCED_FACE ( 'NONE', ( #220 ), #153, .T. ) ;
#76 = APPROVAL_ROLE ( '' ) ;
#77 = FACE_OUTER_BOUND ( 'NONE', #280, .T. ) ;
#78 = AXIS2_PLACEMENT_3D ( 'NONE', #174, #172, #56 ) ;
#79 = SECURITY_CLASSIFICATION ( '', '', #150 ) ;
#80 = FACE_OUTER_BOUND ( 'NONE', #232, .T. ) ;
#81 = CARTESIAN_POINT ( 'NONE',  ( 2.444036937190193349E-14, 6.325236883376371242E-33, 7.000000000000000000 ) ) ;
#82 = FACE_OUTER_BOUND ( 'NONE', #27, .T. ) ;
#83 = APPROVAL_PERSON_ORGANIZATION ( #263, #190, #69 ) ;
#84 = DIRECTION ( 'NONE',  ( 3.491481338843133355E-15, -1.224646799147353207E-16, 1.000000000000000000 ) ) ;
#85 = DIRECTION ( 'NONE',  ( 4.566520318641938367E-31, 1.000000000000000000, 1.285361200338477018E-16 ) ) ;
#86 = FACE_OUTER_BOUND ( 'NONE', #89, .T. ) ;
#87 = CONICAL_SURFACE ( 'NONE', #164, 1.200000000000001732, 0.7853981633974453924 ) ;
#88 = EDGE_CURVE ( 'NONE', #162, #162, #298, .T. ) ;
#89 = EDGE_LOOP ( 'NONE', ( #235 ) ) ;
#90 = AXIS2_PLACEMENT_3D ( 'NONE', #227, #84, #279 ) ;
#91 = COORDINATED_UNIVERSAL_TIME_OFFSET ( 1, 0, .AHEAD. ) ;
#92 = EDGE_LOOP ( 'NONE', ( #22 ) ) ;
#93 = PERSON_AND_ORGANIZATION ( #149, #285 ) ;
#94 = FACE_OUTER_BOUND ( 'NONE', #71, .T. ) ;
#95 = AXIS2_PLACEMENT_3D ( 'NONE', #176, #294, #55 ) ;
#96 = PERSON_AND_ORGANIZATION_ROLE ( 'creator' ) ;
#97 = CARTESIAN_POINT ( 'NONE',  ( 1.735266225405037467E-13, -6.086494591762345225E-15, 49.70000000000000284 ) ) ;
#98 = CC_DESIGN_PERSON_AND_ORGANIZATION_ASSIGNMENT ( #287, #96, ( #21 ) ) ;
#99 = PERSON_AND_ORGANIZATION_ROLE ( 'design_owner' ) ;
#100 = DIRECTION ( 'NONE',  ( -4.566520318641938367E-31, -1.000000000000000000, -1.285361200338477018E-16 ) ) ;
#101 = CARTESIAN_POINT ( 'NONE',  ( 2.444036937190193349E-14, -8.572527594031473190E-16, 7.000000000000000000 ) ) ;
#102 = CIRCLE ( 'NONE', #143, 1.200000000000001732 ) ;
#103 = CARTESIAN_POINT ( 'NONE',  ( -4.882236541922732093E-31, 1.712458058196869082E-32, -1.398328121536061798E-16 ) ) ;
#104 =( NAMED_UNIT ( * ) PLANE_ANGLE_UNIT ( ) SI_UNIT ( $, .RADIAN. ) );
#105 = ADVANCED_BREP_SHAPE_REPRESENTATION ( '326974', ( #47, #253, #112 ), #169 ) ;
#106 = CARTESIAN_POINT ( 'NONE',  ( 8.728703347107833388E-16, 0.8434999999999992504, 0.2500000000000000000 ) ) ;
#107 = CIRCLE ( 'NONE', #177, 0.7400000000000011013 ) ;
#108 = CARTESIAN_POINT ( 'NONE',  ( 5.707628016518648493E-14, -2.001966415627278844E-15, 16.34729635533384595 ) ) ;
#109 = CC_DESIGN_PERSON_AND_ORGANIZATION_ASSIGNMENT ( #290, #142, ( #79 ) ) ;
#110 = CARTESIAN_POINT ( 'NONE',  ( 2.444036937190193349E-14, -8.572527594031473190E-16, 7.000000000000000000 ) ) ;
#111 = VERTEX_POINT ( 'NONE', #36 ) ;
#112 = AXIS2_PLACEMENT_3D ( 'NONE', #29, #54, #146 ) ;
#113 = ORIENTED_EDGE ( 'NONE', *, *, #202, .F. ) ;
#114 = EDGE_LOOP ( 'NONE', ( #46 ) ) ;
#115 = MECHANICAL_CONTEXT ( 'NONE', #199, 'mechanical' ) ;
#116 = ORIENTED_EDGE ( 'NONE', *, *, #88, .T. ) ;
#117 = DATE_AND_TIME ( #123, #17 ) ;
#118 = ORIENTED_EDGE ( 'NONE', *, *, #276, .T. ) ;
#119 = ORIENTED_EDGE ( 'NONE', *, *, #288, .T. ) ;
#120 = APPLICATION_PROTOCOL_DEFINITION ( 'international standard', 'config_control_design', 1994, #199 ) ;
#121 = FACE_BOUND ( 'NONE', #2, .T. ) ;
#122 = AXIS2_PLACEMENT_3D ( 'NONE', #197, #57, #264 ) ;
#123 = CALENDAR_DATE ( 2021, 30, 11 ) ;
#124 = ADVANCED_FACE ( 'NONE', ( #178, #291 ), #207, .T. ) ;
#125 = CARTESIAN_POINT ( 'NONE',  ( 7.152352422040464847E-14, -2.508707522672286183E-15, 20.48515150996145096 ) ) ;
#126 = FACE_OUTER_BOUND ( 'NONE', #44, .T. ) ;
#127 = CYLINDRICAL_SURFACE ( 'NONE', #239, 1.499999999999999112 ) ;
#128 = AXIS2_PLACEMENT_3D ( 'NONE', #108, #180, #204 ) ;
#129 = CC_DESIGN_SECURITY_CLASSIFICATION ( #79, ( #181 ) ) ;
#130 = PLANE ( 'NONE',  #78 ) ;
#131 = CARTESIAN_POINT ( 'NONE',  ( 5.707628016518648493E-14, 0.7703844939755793986, 16.34729635533384595 ) ) ;
#132 = CC_DESIGN_PERSON_AND_ORGANIZATION_ASSIGNMENT ( #257, #31, ( #181 ) ) ;
#133 = CARTESIAN_POINT ( 'NONE',  ( 7.152352422040464847E-14, -2.508707522672286183E-15, 20.48515150996145096 ) ) ;
#134 = AXIS2_PLACEMENT_3D ( 'NONE', #289, #268, #100 ) ;
#135 = EDGE_CURVE ( 'NONE', #137, #137, #296, .T. ) ;
#136 = VERTEX_POINT ( 'NONE', #19 ) ;
#137 = VERTEX_POINT ( 'NONE', #277 ) ;
#138 = LOCAL_TIME ( 9, 32, 39.00000000000000000, #4 ) ;
#139 = ORIENTED_EDGE ( 'NONE', *, *, #166, .F. ) ;
#140 = PLANE ( 'NONE',  #90 ) ;
#141 = PRODUCT_RELATED_PRODUCT_CATEGORY ( 'detail', '', ( #241 ) ) ;
#142 = PERSON_AND_ORGANIZATION_ROLE ( 'classification_officer' ) ;
#143 = AXIS2_PLACEMENT_3D ( 'NONE', #182, #61, #155 ) ;
#144 = EDGE_LOOP ( 'NONE', ( #116 ) ) ;
#145 = APPROVAL_STATUS ( 'not_yet_approved' ) ;
#146 = DIRECTION ( 'NONE',  ( 1.000000000000000000, 0.0000000000000000000, 0.0000000000000000000 ) ) ;
#147 = DIRECTION ( 'NONE',  ( -3.491481338843133355E-15, 1.224646799147353207E-16, -1.000000000000000000 ) ) ;
#148 = ADVANCED_FACE ( 'NONE', ( #126, #194 ), #151, .T. ) ;
#149 = PERSON ( 'UNSPECIFIED', 'UNSPECIFIED', 'UNSPECIFIED', ('UNSPECIFIED'), ('UNSPECIFIED'), ('UNSPECIFIED') ) ;
#150 = SECURITY_CLASSIFICATION_LEVEL ( 'unclassified' ) ;
#151 = CYLINDRICAL_SURFACE ( 'NONE', #24, 0.7400000000000005462 ) ;
#152 = CIRCLE ( 'NONE', #66, 0.6991624327025949270 ) ;
#153 = PLANE ( 'NONE',  #122 ) ;
#154 = ORIENTED_EDGE ( 'NONE', *, *, #68, .T. ) ;
#155 = DIRECTION ( 'NONE',  ( 0.0000000000000000000, 1.000000000000000000, 0.0000000000000000000 ) ) ;
#156 = VERTEX_POINT ( 'NONE', #206 ) ;
#157 = APPLICATION_CONTEXT ( 'configuration controlled 3d designs of mechanical parts and assemblies' ) ;
#158 = ADVANCED_FACE ( 'NONE', ( #80, #240 ), #87, .T. ) ;
#159 = DIRECTION ( 'NONE',  ( -3.491481338843133355E-15, 1.224646799147353207E-16, -1.000000000000000000 ) ) ;
#160 = AXIS2_PLACEMENT_3D ( 'NONE', #133, #16, #275 ) ;
#161 = LOCAL_TIME ( 9, 32, 39.00000000000000000, #175 ) ;
#162 = VERTEX_POINT ( 'NONE', #39 ) ;
#163 = DIRECTION ( 'NONE',  ( 0.0000000000000000000, 1.000000000000000000, 0.0000000000000000000 ) ) ;
#164 = AXIS2_PLACEMENT_3D ( 'NONE', #13, #147, #221 ) ;
#165 = ORIENTED_EDGE ( 'NONE', *, *, #135, .F. ) ;
#166 = EDGE_CURVE ( 'NONE', #295, #295, #152, .T. ) ;
#167 = APPROVAL_DATE_TIME ( #51, #190 ) ;
#168 = DATE_AND_TIME ( #258, #58 ) ;
#169 =( GEOMETRIC_REPRESENTATION_CONTEXT ( 3 ) GLOBAL_UNCERTAINTY_ASSIGNED_CONTEXT ( ( #272 ) ) GLOBAL_UNIT_ASSIGNED_CONTEXT ( ( #252, #104, #173 ) ) REPRESENTATION_CONTEXT ( 'NONE', 'WORKASPACE' ) );
#170 = ORIENTED_EDGE ( 'NONE', *, *, #301, .F. ) ;
#171 = APPROVAL_ROLE ( '' ) ;
#172 = DIRECTION ( 'NONE',  ( -3.491481338843133355E-15, 1.224646799147353207E-16, -1.000000000000000000 ) ) ;
#173 =( NAMED_UNIT ( * ) SI_UNIT ( $, .STERADIAN. ) SOLID_ANGLE_UNIT ( ) );
#174 = CARTESIAN_POINT ( 'NONE',  ( 1.745740669421566678E-13, 8.998558695971067645E-33, 50.00000000000000000 ) ) ;
#175 = COORDINATED_UNIVERSAL_TIME_OFFSET ( 1, 0, .AHEAD. ) ;
#176 = CARTESIAN_POINT ( 'NONE',  ( 5.586370142149013368E-14, -2.168404344971008868E-15, 16.00000000000000000 ) ) ;
#177 = AXIS2_PLACEMENT_3D ( 'NONE', #38, #205, #302 ) ;
#178 = FACE_BOUND ( 'NONE', #7, .T. ) ;
#179 = FACE_OUTER_BOUND ( 'NONE', #144, .T. ) ;
#180 = DIRECTION ( 'NONE',  ( -3.491481338843133355E-15, 1.224646799147353207E-16, -1.000000000000000000 ) ) ;
#181 = PRODUCT_DEFINITION_FORMATION_WITH_SPECIFIED_SOURCE ( 'ANY', '', #241, .NOT_KNOWN. ) ;
#182 = CARTESIAN_POINT ( 'NONE',  ( 1.745740669421566678E-13, -6.123233995736766085E-15, 50.00000000000000000 ) ) ;
#183 = ADVANCED_FACE ( 'NONE', ( #179 ), #200, .F. ) ;
#184 = VERTEX_POINT ( 'NONE', #63 ) ;
#185 = CARTESIAN_POINT ( 'NONE',  ( 2.506627765991136237E-14, 0.7400000000000002132, 7.179267258583378108 ) ) ;
#186 = CLOSED_SHELL ( 'NONE', ( #183, #262, #148, #15, #191, #37, #158, #23 ) ) ;
#187 = FACE_BOUND ( 'NONE', #6, .T. ) ;
#188 = ORIENTED_EDGE ( 'NONE', *, *, #301, .T. ) ;
#189 = ORIENTED_EDGE ( 'NONE', *, *, #288, .F. ) ;
#190 = APPROVAL ( #5, 'UNSPECIFIED' ) ;
#191 = ADVANCED_FACE ( 'NONE', ( #121, #64 ), #244, .T. ) ;
#192 = APPROVAL_PERSON_ORGANIZATION ( #217, #208, #171 ) ;
#193 = DIRECTION ( 'NONE',  ( -3.491481338843133355E-15, 1.224646799147353207E-16, -1.000000000000000000 ) ) ;
#194 = FACE_OUTER_BOUND ( 'NONE', #114, .T. ) ;
#195 = DATE_TIME_ROLE ( 'classification_date' ) ;
#196 = FACE_OUTER_BOUND ( 'NONE', #216, .T. ) ;
#197 = CARTESIAN_POINT ( 'NONE',  ( 2.444036937190193349E-14, 6.325236883376371242E-33, 7.000000000000000000 ) ) ;
#198 = CC_DESIGN_APPROVAL ( #248, ( #79 ) ) ;
#199 = APPLICATION_CONTEXT ( 'configuration controlled 3d designs of mechanical parts and assemblies' ) ;
#200 = PLANE ( 'NONE',  #282 ) ;
#201 = CYLINDRICAL_SURFACE ( 'NONE', #212, 0.8434999999999995834 ) ;
#202 = EDGE_CURVE ( 'NONE', #136, #136, #9, .T. ) ;
#203 = CIRCLE ( 'NONE', #267, 1.499999999999996669 ) ;
#204 = DIRECTION ( 'NONE',  ( 0.0000000000000000000, 1.000000000000000000, 0.0000000000000000000 ) ) ;
#205 = DIRECTION ( 'NONE',  ( -3.491481338843133355E-15, 1.224646799147353207E-16, -1.000000000000000000 ) ) ;
#206 = CARTESIAN_POINT ( 'NONE',  ( 1.745740669421566678E-13, 1.199999999999995515, 50.00000000000000000 ) ) ;
#207 = CONICAL_SURFACE ( 'NONE', #134, 0.8434999999999992504, 0.5235987755982922653 ) ;
#208 = APPROVAL ( #284, 'UNSPECIFIED' ) ;
#209 = EDGE_LOOP ( 'NONE', ( #214 ) ) ;
#210 = EDGE_CURVE ( 'NONE', #246, #246, #107, .T. ) ;
#211 = APPLICATION_PROTOCOL_DEFINITION ( 'international standard', 'config_control_design', 1994, #157 ) ;
#212 = AXIS2_PLACEMENT_3D ( 'NONE', #62, #273, #249 ) ;
#213 = DATE_AND_TIME ( #266, #161 ) ;
#214 = ORIENTED_EDGE ( 'NONE', *, *, #135, .T. ) ;
#215 = DATE_AND_TIME ( #73, #138 ) ;
#216 = EDGE_LOOP ( 'NONE', ( #281 ) ) ;
#217 = PERSON_AND_ORGANIZATION ( #149, #285 ) ;
#218 = DIRECTION ( 'NONE',  ( -3.491481338843133355E-15, 1.224646799147353207E-16, -1.000000000000000000 ) ) ;
#219 = CC_DESIGN_PERSON_AND_ORGANIZATION_ASSIGNMENT ( #93, #45, ( #181 ) ) ;
#220 = FACE_OUTER_BOUND ( 'NONE', #67, .T. ) ;
#221 = DIRECTION ( 'NONE',  ( 0.0000000000000000000, 1.000000000000000000, 0.0000000000000000000 ) ) ;
#222 = CIRCLE ( 'NONE', #128, 0.7703844939755813970 ) ;
#223 = DIRECTION ( 'NONE',  ( 3.491481338843133355E-15, -1.224646799147353207E-16, 1.000000000000000000 ) ) ;
#224 = DIRECTION ( 'NONE',  ( 0.0000000000000000000, 1.000000000000000000, 0.0000000000000000000 ) ) ;
#225 = FACE_OUTER_BOUND ( 'NONE', #92, .T. ) ;
#226 = AXIS2_PLACEMENT_3D ( 'NONE', #40, #18, #163 ) ;
#227 = CARTESIAN_POINT ( 'NONE',  ( -2.441118270961366046E-31, 8.562290290984345409E-33, -6.991640607680308989E-17 ) ) ;
#228 = CARTESIAN_POINT ( 'NONE',  ( -1.892735826383160919E-31, 0.6991624327025949270, -5.421010862427520937E-17 ) ) ;
#229 = CC_DESIGN_APPROVAL ( #208, ( #21 ) ) ;
#230 = EDGE_LOOP ( 'NONE', ( #189 ) ) ;
#231 = PERSON_AND_ORGANIZATION ( #149, #285 ) ;
#232 = EDGE_LOOP ( 'NONE', ( #165 ) ) ;
#233 = COORDINATED_UNIVERSAL_TIME_OFFSET ( 1, 0, .AHEAD. ) ;
#234 = CONICAL_SURFACE ( 'NONE', #226, 0.8435000000000000275, 0.5235987755982962621 ) ;
#235 = ORIENTED_EDGE ( 'NONE', *, *, #202, .T. ) ;
#236 = DATE_TIME_ROLE ( 'creation_date' ) ;
#237 = FACE_OUTER_BOUND ( 'NONE', #230, .T. ) ;
#238 = ADVANCED_FACE ( 'NONE', ( #297, #86 ), #201, .T. ) ;
#239 = AXIS2_PLACEMENT_3D ( 'NONE', #243, #218, #30 ) ;
#240 = FACE_BOUND ( 'NONE', #255, .T. ) ;
#241 = PRODUCT ( '326974', '326974', '', ( #115 ) ) ;
#242 = DIRECTION ( 'NONE',  ( -3.491481338843133355E-15, 1.224646799147353207E-16, -1.000000000000000000 ) ) ;
#243 = CARTESIAN_POINT ( 'NONE',  ( 0.0000000000000000000, 0.0000000000000000000, 0.0000000000000000000 ) ) ;
#244 = CONICAL_SURFACE ( 'NONE', #160, 1.499999999999996669, 0.1745329251994261754 ) ;
#245 = DESIGN_CONTEXT ( 'detailed design', #157, 'design' ) ;
#246 = VERTEX_POINT ( 'NONE', #185 ) ;
#247 = VERTEX_POINT ( 'NONE', #106 ) ;
#248 = APPROVAL ( #145, 'UNSPECIFIED' ) ;
#249 = DIRECTION ( 'NONE',  ( 4.275831445896958607E-31, 1.000000000000000000, 1.224646799147353207E-16 ) ) ;
#250 = CIRCLE ( 'NONE', #48, 0.7399999999999999911 ) ;
#251 = DIRECTION ( 'NONE',  ( -3.491481338843133355E-15, 1.224646799147353207E-16, -1.000000000000000000 ) ) ;
#252 =( LENGTH_UNIT ( ) NAMED_UNIT ( * ) SI_UNIT ( .MILLI., .METRE. ) );
#253 = MANIFOLD_SOLID_BREP ( 'Corps-Déplacer/Copier1[2]', #20 ) ;
#254 = CC_DESIGN_APPROVAL ( #190, ( #181 ) ) ;
#255 = EDGE_LOOP ( 'NONE', ( #119 ) ) ;
#256 = ORIENTED_EDGE ( 'NONE', *, *, #299, .F. ) ;
#257 = PERSON_AND_ORGANIZATION ( #149, #285 ) ;
#258 = CALENDAR_DATE ( 2021, 30, 11 ) ;
#259 = CIRCLE ( 'NONE', #1, 0.8434999999999992504 ) ;
#260 = EDGE_LOOP ( 'NONE', ( #188 ) ) ;
#261 = EDGE_LOOP ( 'NONE', ( #170 ) ) ;
#262 = ADVANCED_FACE ( 'NONE', ( #187, #225 ), #234, .T. ) ;
#263 = PERSON_AND_ORGANIZATION ( #149, #285 ) ;
#264 = DIRECTION ( 'NONE',  ( -4.275831445896958607E-31, -1.000000000000000000, -1.224646799147353207E-16 ) ) ;
#265 = ADVANCED_FACE ( 'NONE', ( #82 ), #140, .F. ) ;
#266 = CALENDAR_DATE ( 2021, 30, 11 ) ;
#267 = AXIS2_PLACEMENT_3D ( 'NONE', #125, #193, #10 ) ;
#268 = DIRECTION ( 'NONE',  ( 3.491481338843133355E-15, -1.224646799147353207E-16, 1.000000000000000000 ) ) ;
#269 = DIRECTION ( 'NONE',  ( 0.0000000000000000000, 1.000000000000000000, 0.0000000000000000000 ) ) ;
#270 = DIRECTION ( 'NONE',  ( -3.491481338843133355E-15, 1.224646799147353207E-16, -1.000000000000000000 ) ) ;
#271 = AXIS2_PLACEMENT_3D ( 'NONE', #97, #242, #33 ) ;
#272 = UNCERTAINTY_MEASURE_WITH_UNIT (LENGTH_MEASURE( 1.000000000000000082E-05 ), #252, 'distance_accuracy_value', 'NONE');
#273 = DIRECTION ( 'NONE',  ( -3.491481338843133355E-15, 1.224646799147353207E-16, -1.000000000000000000 ) ) ;
#274 = CC_DESIGN_PERSON_AND_ORGANIZATION_ASSIGNMENT ( #8, #99, ( #241 ) ) ;
#275 = DIRECTION ( 'NONE',  ( 0.0000000000000000000, -1.000000000000000000, 0.0000000000000000000 ) ) ;
#276 = EDGE_CURVE ( 'NONE', #111, #111, #250, .T. ) ;
#277 = CARTESIAN_POINT ( 'NONE',  ( 1.735266225405037467E-13, 1.499999999999995559, 49.70000000000000284 ) ) ;
#278 = TOROIDAL_SURFACE ( 'NONE', #95, 2.740000000000000657, 2.000000000000000000 ) ;
#279 = DIRECTION ( 'NONE',  ( -4.275831445896958607E-31, -1.000000000000000000, -1.224646799147353207E-16 ) ) ;
#280 = EDGE_LOOP ( 'NONE', ( #72 ) ) ;
#281 = ORIENTED_EDGE ( 'NONE', *, *, #299, .T. ) ;
#282 = AXIS2_PLACEMENT_3D ( 'NONE', #81, #223, #286 ) ;
#283 = ORIENTED_EDGE ( 'NONE', *, *, #68, .F. ) ;
#284 = APPROVAL_STATUS ( 'not_yet_approved' ) ;
#285 = ORGANIZATION ( 'UNSPECIFIED', 'UNSPECIFIED', '' ) ;
#286 = DIRECTION ( 'NONE',  ( -4.275831445896958607E-31, -1.000000000000000000, -1.224646799147353207E-16 ) ) ;
#287 = PERSON_AND_ORGANIZATION ( #149, #285 ) ;
#288 = EDGE_CURVE ( 'NONE', #156, #156, #102, .T. ) ;
#289 = CARTESIAN_POINT ( 'NONE',  ( 8.728703347107829444E-16, -3.061616997868381785E-17, 0.2499999999999998890 ) ) ;
#290 = PERSON_AND_ORGANIZATION ( #149, #285 ) ;
#291 = FACE_OUTER_BOUND ( 'NONE', #260, .T. ) ;
#292 = AXIS2_PLACEMENT_3D ( 'NONE', #110, #159, #224 ) ;
#293 = DIRECTION ( 'NONE',  ( -3.491481338843133355E-15, 1.224646799147353207E-16, -1.000000000000000000 ) ) ;
#294 = DIRECTION ( 'NONE',  ( -3.491481338843133355E-15, 1.224646799147353207E-16, -1.000000000000000000 ) ) ;
#295 = VERTEX_POINT ( 'NONE', #228 ) ;
#296 = CIRCLE ( 'NONE', #271, 1.500000000000001554 ) ;
#297 = FACE_OUTER_BOUND ( 'NONE', #261, .T. ) ;
#298 = CIRCLE ( 'NONE', #53, 0.8435000000000000275 ) ;
#299 = EDGE_CURVE ( 'NONE', #14, #14, #222, .T. ) ;
#300 = CARTESIAN_POINT ( 'NONE',  ( 8.728703347107829444E-16, -3.061616997868381785E-17, 0.2499999999999998890 ) ) ;
#301 = EDGE_CURVE ( 'NONE', #247, #247, #259, .T. ) ;
#302 = DIRECTION ( 'NONE',  ( 0.0000000000000000000, 1.000000000000000000, 0.0000000000000000000 ) ) ;
#303 = CARTESIAN_POINT ( 'NONE',  ( 5.586370142149013368E-14, -1.959434878635765131E-15, 16.00000000000000000 ) ) ;
ENDSEC;
END-ISO-10303-21;
