ISO-10303-21;
HEADER;
FILE_DESCRIPTION (( 'STEP AP203' ),
    '1' );
FILE_NAME ('326973.step',
    '2021-11-30T08:32:38',
    ( '' ),
    ( '' ),
    'SwSTEP 2.0',
    'SolidWorks 2019',
    '' );
FILE_SCHEMA (( 'CONFIG_CONTROL_DESIGN' ));
ENDSEC;

DATA;
#1 = APPROVAL ( #74, 'UNSPECIFIED' ) ;
#2 = EDGE_LOOP ( 'NONE', ( #185 ) ) ;
#3 = PRODUCT_DEFINITION_SHAPE ( 'NONE', 'NONE',  #159 ) ;
#4 = ORIENTED_EDGE ( 'NONE', *, *, #65, .T. ) ;
#5 = DATE_AND_TIME ( #71, #265 ) ;
#6 = CARTESIAN_POINT ( 'NONE',  ( 0.0000000000000000000, 0.0000000000000000000, 0.0000000000000000000 ) ) ;
#7 = ORIENTED_EDGE ( 'NONE', *, *, #98, .F. ) ;
#8 = DIRECTION ( 'NONE',  ( 0.0000000000000000000, 1.000000000000000000, 0.0000000000000000000 ) ) ;
#9 = CARTESIAN_POINT ( 'NONE',  ( 0.0000000000000000000, 0.0000000000000000000, 0.0000000000000000000 ) ) ;
#10 = DIRECTION ( 'NONE',  ( 0.0000000000000000000, 1.000000000000000000, 0.0000000000000000000 ) ) ;
#11 = DIRECTION ( 'NONE',  ( -3.491481338843133355E-15, 1.224646799147353207E-16, -1.000000000000000000 ) ) ;
#12 = AXIS2_PLACEMENT_3D ( 'NONE', #267, #58, #37 ) ;
#13 = EDGE_CURVE ( 'NONE', #150, #150, #207, .T. ) ;
#14 = DIRECTION ( 'NONE',  ( 4.275831445896958607E-31, 1.000000000000000000, 1.224646799147353207E-16 ) ) ;
#15 = CIRCLE ( 'NONE', #167, 0.8235000000000000098 ) ;
#16 = CARTESIAN_POINT ( 'NONE',  ( 2.506627765991136237E-14, 0.7199999999999997513, 7.179267258583378108 ) ) ;
#17 = CALENDAR_DATE ( 2021, 30, 11 ) ;
#18 = CARTESIAN_POINT ( 'NONE',  ( 0.0000000000000000000, 0.6791624327025949093, 0.0000000000000000000 ) ) ;
#19 = EDGE_CURVE ( 'NONE', #169, #169, #263, .T. ) ;
#20 = CLOSED_SHELL ( 'NONE', ( #53, #206, #181, #94, #151, #23, #158, #129 ) ) ;
#21 = EDGE_LOOP ( 'NONE', ( #27 ) ) ;
#22 = FACE_OUTER_BOUND ( 'NONE', #240, .T. ) ;
#23 = ADVANCED_FACE ( 'NONE', ( #22, #117 ), #211, .T. ) ;
#24 = DIRECTION ( 'NONE',  ( 3.491481338843133355E-15, -1.224646799147353207E-16, 1.000000000000000000 ) ) ;
#25 = EDGE_LOOP ( 'NONE', ( #241 ) ) ;
#26 = PRODUCT ( '326973', '326973', '', ( #63 ) ) ;
#27 = ORIENTED_EDGE ( 'NONE', *, *, #90, .F. ) ;
#28 = CC_DESIGN_APPROVAL ( #44, ( #205 ) ) ;
#29 = DIRECTION ( 'NONE',  ( 0.0000000000000000000, 1.000000000000000000, 0.0000000000000000000 ) ) ;
#30 = FACE_OUTER_BOUND ( 'NONE', #21, .T. ) ;
#31 = PLANE ( 'NONE',  #230 ) ;
#32 = DIRECTION ( 'NONE',  ( -3.491481338843133355E-15, 1.224646799147353207E-16, -1.000000000000000000 ) ) ;
#33 = COORDINATED_UNIVERSAL_TIME_OFFSET ( 1, 0, .AHEAD. ) ;
#34 = CC_DESIGN_PERSON_AND_ORGANIZATION_ASSIGNMENT ( #227, #204, ( #159 ) ) ;
#35 = FACE_BOUND ( 'NONE', #161, .T. ) ;
#36 = APPROVAL_ROLE ( '' ) ;
#37 = DIRECTION ( 'NONE',  ( 4.677425487279266001E-31, 1.000000000000000000, 1.316578230097760190E-16 ) ) ;
#38 = APPROVAL_ROLE ( '' ) ;
#39 = CIRCLE ( 'NONE', #212, 1.500000000000001554 ) ;
#40 = APPROVAL_DATE_TIME ( #180, #1 ) ;
#41 = AXIS2_PLACEMENT_3D ( 'NONE', #80, #249, #130 ) ;
#42 = AXIS2_PLACEMENT_3D ( 'NONE', #141, #24, #279 ) ;
#43 = EDGE_LOOP ( 'NONE', ( #260 ) ) ;
#44 = APPROVAL ( #251, 'UNSPECIFIED' ) ;
#45 = CIRCLE ( 'NONE', #12, 0.8234999999999991216 ) ;
#46 = PLANE ( 'NONE',  #42 ) ;
#47 = DESIGN_CONTEXT ( 'detailed design', #95, 'design' ) ;
#48 = ORIENTED_EDGE ( 'NONE', *, *, #111, .F. ) ;
#49 = MANIFOLD_SOLID_BREP ( 'Corps-Déplacer/Copier1[2]', #283 ) ;
#50 = DIRECTION ( 'NONE',  ( 4.275831445896957731E-31, 1.000000000000000000, 1.224646799147353207E-16 ) ) ;
#51 = CYLINDRICAL_SURFACE ( 'NONE', #121, 0.8234999999999995657 ) ;
#52 = CARTESIAN_POINT ( 'NONE',  ( 7.191954771321497317E-14, -2.522598156927201338E-15, 20.59857714635381143 ) ) ;
#53 = ADVANCED_FACE ( 'NONE', ( #68 ), #46, .F. ) ;
#54 = FACE_OUTER_BOUND ( 'NONE', #165, .T. ) ;
#55 = CYLINDRICAL_SURFACE ( 'NONE', #239, 0.7200000000000005285 ) ;
#56 = APPROVAL_PERSON_ORGANIZATION ( #154, #44, #36 ) ;
#57 = DATE_TIME_ROLE ( 'creation_date' ) ;
#58 = DIRECTION ( 'NONE',  ( -3.491481338843133355E-15, 1.224646799147353207E-16, -1.000000000000000000 ) ) ;
#59 = APPROVAL_DATE_TIME ( #109, #44 ) ;
#60 = CARTESIAN_POINT ( 'NONE',  ( 7.191954771321497317E-14, -2.522598156927201338E-15, 20.59857714635381143 ) ) ;
#61 = PERSON_AND_ORGANIZATION ( #208, #91 ) ;
#62 = LOCAL_TIME ( 9, 32, 38.00000000000000000, #173 ) ;
#63 = MECHANICAL_CONTEXT ( 'NONE', #177, 'mechanical' ) ;
#64 = PERSON_AND_ORGANIZATION ( #208, #91 ) ;
#65 = EDGE_CURVE ( 'NONE', #248, #248, #138, .T. ) ;
#66 = CC_DESIGN_APPROVAL ( #1, ( #295 ) ) ;
#67 = CARTESIAN_POINT ( 'NONE',  ( -2.903984086621632098E-31, 1.018580502462142189E-32, -8.317340993103624477E-17 ) ) ;
#68 = FACE_OUTER_BOUND ( 'NONE', #213, .T. ) ;
#69 = CARTESIAN_POINT ( 'NONE',  ( 2.506627765991136237E-14, -8.792066668447528551E-16, 7.179267258583378108 ) ) ;
#70 = CC_DESIGN_PERSON_AND_ORGANIZATION_ASSIGNMENT ( #64, #86, ( #26 ) ) ;
#71 = CALENDAR_DATE ( 2021, 30, 11 ) ;
#72 = CARTESIAN_POINT ( 'NONE',  ( 7.191954771321497317E-14, 1.499999999999994005, 20.59857714635381143 ) ) ;
#73 = EDGE_LOOP ( 'NONE', ( #99 ) ) ;
#74 = APPROVAL_STATUS ( 'not_yet_approved' ) ;
#75 = EDGE_LOOP ( 'NONE', ( #48 ) ) ;
#76 = PLANE ( 'NONE',  #142 ) ;
#77 = DIRECTION ( 'NONE',  ( -4.275831445896958607E-31, -1.000000000000000000, -1.224646799147353207E-16 ) ) ;
#78 = CC_DESIGN_PERSON_AND_ORGANIZATION_ASSIGNMENT ( #235, #114, ( #295 ) ) ;
#79 = DIRECTION ( 'NONE',  ( -3.491481338843133355E-15, 1.224646799147353207E-16, -1.000000000000000000 ) ) ;
#80 = CARTESIAN_POINT ( 'NONE',  ( 2.444036937190193349E-14, 6.175260905110185755E-33, 7.000000000000000000 ) ) ;
#81 = CIRCLE ( 'NONE', #255, 0.7200000000000004174 ) ;
#82 = CARTESIAN_POINT ( 'NONE',  ( 8.728703347107829444E-16, -3.061616997868381785E-17, 0.2499999999999998890 ) ) ;
#83 = DATE_AND_TIME ( #273, #223 ) ;
#84 = DIRECTION ( 'NONE',  ( -4.677425487279266001E-31, -1.000000000000000000, -1.316578230097760190E-16 ) ) ;
#85 = CONICAL_SURFACE ( 'NONE', #184, 0.8234999999999991216, 0.5235987755982923764 ) ;
#86 = PERSON_AND_ORGANIZATION_ROLE ( 'design_owner' ) ;
#87 = DIRECTION ( 'NONE',  ( 0.0000000000000000000, 1.000000000000000000, 0.0000000000000000000 ) ) ;
#88 = CALENDAR_DATE ( 2021, 30, 11 ) ;
#89 = TOROIDAL_SURFACE ( 'NONE', #258, 2.720000000000000639, 2.000000000000000000 ) ;
#90 = EDGE_CURVE ( 'NONE', #199, #199, #301, .T. ) ;
#91 = ORGANIZATION ( 'UNSPECIFIED', 'UNSPECIFIED', '' ) ;
#92 = ORIENTED_EDGE ( 'NONE', *, *, #210, .F. ) ;
#93 = CARTESIAN_POINT ( 'NONE',  ( 2.444036937190193349E-14, -8.572527594031473190E-16, 7.000000000000000000 ) ) ;
#94 = ADVANCED_FACE ( 'NONE', ( #127, #220 ), #89, .F. ) ;
#95 = APPLICATION_CONTEXT ( 'configuration controlled 3d designs of mechanical parts and assemblies' ) ;
#96 = DIRECTION ( 'NONE',  ( -3.491481338843133355E-15, 1.224646799147353207E-16, -1.000000000000000000 ) ) ;
#97 = COORDINATED_UNIVERSAL_TIME_OFFSET ( 1, 0, .AHEAD. ) ;
#98 = EDGE_CURVE ( 'NONE', #270, #270, #15, .T. ) ;
#99 = ORIENTED_EDGE ( 'NONE', *, *, #13, .T. ) ;
#100 = DATE_TIME_ROLE ( 'classification_date' ) ;
#101 = EDGE_LOOP ( 'NONE', ( #4 ) ) ;
#102 = FACE_BOUND ( 'NONE', #164, .T. ) ;
#103 = CARTESIAN_POINT ( 'NONE',  ( 5.586370142149013368E-14, 0.7199999999999984190, 16.00000000000000000 ) ) ;
#104 = CARTESIAN_POINT ( 'NONE',  ( 2.444036937190193349E-14, -8.572527594031473190E-16, 7.000000000000000000 ) ) ;
#105 = DIRECTION ( 'NONE',  ( 0.0000000000000000000, 1.000000000000000000, 0.0000000000000000000 ) ) ;
#106 = AXIS2_PLACEMENT_3D ( 'NONE', #52, #201, #225 ) ;
#107 = PRODUCT_RELATED_PRODUCT_CATEGORY ( 'detail', '', ( #26 ) ) ;
#108 = CARTESIAN_POINT ( 'NONE',  ( 5.707628016518648493E-14, -2.001966415627278844E-15, 16.34729635533384595 ) ) ;
#109 = DATE_AND_TIME ( #17, #243 ) ;
#110 = CARTESIAN_POINT ( 'NONE',  ( 1.735266225405037467E-13, 1.499999999999995559, 49.70000000000000284 ) ) ;
#111 = EDGE_CURVE ( 'NONE', #252, #252, #39, .T. ) ;
#112 = CIRCLE ( 'NONE', #280, 1.499999999999996669 ) ;
#113 = DIRECTION ( 'NONE',  ( 1.000000000000000000, 0.0000000000000000000, 0.0000000000000000000 ) ) ;
#114 = PERSON_AND_ORGANIZATION_ROLE ( 'classification_officer' ) ;
#115 = DIRECTION ( 'NONE',  ( -3.491481338843133355E-15, 1.224646799147353207E-16, -1.000000000000000000 ) ) ;
#116 = AXIS2_PLACEMENT_3D ( 'NONE', #292, #197, #105 ) ;
#117 = FACE_OUTER_BOUND ( 'NONE', #303, .T. ) ;
#118 = EDGE_LOOP ( 'NONE', ( #285 ) ) ;
#119 = EDGE_CURVE ( 'NONE', #274, #274, #81, .T. ) ;
#120 = ORIENTED_EDGE ( 'NONE', *, *, #210, .T. ) ;
#121 = AXIS2_PLACEMENT_3D ( 'NONE', #294, #287, #14 ) ;
#122 = ORIENTED_EDGE ( 'NONE', *, *, #111, .T. ) ;
#123 = CARTESIAN_POINT ( 'NONE',  ( 5.586370142149013368E-14, -1.959434878635765131E-15, 16.00000000000000000 ) ) ;
#124 = FACE_OUTER_BOUND ( 'NONE', #25, .T. ) ;
#125 = DIRECTION ( 'NONE',  ( 4.275831445896958607E-31, 1.000000000000000000, 1.224646799147353207E-16 ) ) ;
#126 = PLANE ( 'NONE',  #41 ) ;
#127 = FACE_OUTER_BOUND ( 'NONE', #2, .T. ) ;
#128 = AXIS2_PLACEMENT_3D ( 'NONE', #104, #296, #87 ) ;
#129 = ADVANCED_FACE ( 'NONE', ( #30 ), #76, .F. ) ;
#130 = DIRECTION ( 'NONE',  ( -4.275831445896958607E-31, -1.000000000000000000, -1.224646799147353207E-16 ) ) ;
#131 = AXIS2_PLACEMENT_3D ( 'NONE', #69, #32, #10 ) ;
#132 = COORDINATED_UNIVERSAL_TIME_OFFSET ( 1, 0, .AHEAD. ) ;
#133 = DIRECTION ( 'NONE',  ( 3.491481338843133355E-15, -1.224646799147353207E-16, 1.000000000000000000 ) ) ;
#134 = LOCAL_TIME ( 9, 32, 38.00000000000000000, #33 ) ;
#135 = CC_DESIGN_PERSON_AND_ORGANIZATION_ASSIGNMENT ( #156, #203, ( #205 ) ) ;
#136 = AXIS2_PLACEMENT_3D ( 'NONE', #182, #96, #278 ) ;
#137 = APPROVAL_DATE_TIME ( #83, #250 ) ;
#138 = CIRCLE ( 'NONE', #131, 0.7200000000000006395 ) ;
#139 = EDGE_LOOP ( 'NONE', ( #216 ) ) ;
#140 = ORIENTED_EDGE ( 'NONE', *, *, #19, .F. ) ;
#141 = CARTESIAN_POINT ( 'NONE',  ( 2.444036937190193349E-14, 6.175260905110185755E-33, 7.000000000000000000 ) ) ;
#142 = AXIS2_PLACEMENT_3D ( 'NONE', #147, #79, #125 ) ;
#143 = ORIENTED_EDGE ( 'NONE', *, *, #276, .F. ) ;
#144 = ORIENTED_EDGE ( 'NONE', *, *, #90, .T. ) ;
#145 = DIRECTION ( 'NONE',  ( 0.0000000000000000000, 0.0000000000000000000, 1.000000000000000000 ) ) ;
#146 = CARTESIAN_POINT ( 'NONE',  ( 2.444036937190193349E-14, -8.572527594031473190E-16, 7.000000000000000000 ) ) ;
#147 = CARTESIAN_POINT ( 'NONE',  ( 1.745740669421566678E-13, 8.998558695971067645E-33, 50.00000000000000000 ) ) ;
#148 = CARTESIAN_POINT ( 'NONE',  ( -1.451992043310816049E-31, 5.092902512310710943E-33, -4.158670496551812239E-17 ) ) ;
#149 = CARTESIAN_POINT ( 'NONE',  ( 5.586370142149013368E-14, -2.168404344971008868E-15, 16.00000000000000000 ) ) ;
#150 = VERTEX_POINT ( 'NONE', #18 ) ;
#151 = ADVANCED_FACE ( 'NONE', ( #247, #168 ), #196, .T. ) ;
#152 = CC_DESIGN_SECURITY_CLASSIFICATION ( #295, ( #205 ) ) ;
#153 = FACE_OUTER_BOUND ( 'NONE', #73, .T. ) ;
#154 = PERSON_AND_ORGANIZATION ( #208, #91 ) ;
#155 = CARTESIAN_POINT ( 'NONE',  ( 2.444036937190193349E-14, 0.8234999999999991216, 7.000000000000000000 ) ) ;
#156 = PERSON_AND_ORGANIZATION ( #208, #91 ) ;
#157 = DIRECTION ( 'NONE',  ( 4.275831445896958607E-31, 1.000000000000000000, 1.224646799147352961E-16 ) ) ;
#158 = ADVANCED_FACE ( 'NONE', ( #253, #35 ), #231, .T. ) ;
#159 = PRODUCT_DEFINITION ( 'UNKNOWN', '', #205, #47 ) ;
#160 = CC_DESIGN_APPROVAL ( #250, ( #159 ) ) ;
#161 = EDGE_LOOP ( 'NONE', ( #144 ) ) ;
#162 = ADVANCED_FACE ( 'NONE', ( #102, #124 ), #85, .T. ) ;
#163 = AXIS2_PLACEMENT_3D ( 'NONE', #108, #11, #194 ) ;
#164 = EDGE_LOOP ( 'NONE', ( #237 ) ) ;
#165 = EDGE_LOOP ( 'NONE', ( #214 ) ) ;
#166 = DIRECTION ( 'NONE',  ( -3.491481338843133355E-15, 1.224646799147353207E-16, -1.000000000000000000 ) ) ;
#167 = AXIS2_PLACEMENT_3D ( 'NONE', #146, #289, #244 ) ;
#168 = FACE_OUTER_BOUND ( 'NONE', #282, .T. ) ;
#169 = VERTEX_POINT ( 'NONE', #226 ) ;
#170 = ADVANCED_FACE ( 'NONE', ( #54, #172 ), #51, .T. ) ;
#171 = CC_DESIGN_DATE_AND_TIME_ASSIGNMENT ( #5, #100, ( #295 ) ) ;
#172 = FACE_OUTER_BOUND ( 'NONE', #118, .T. ) ;
#173 = COORDINATED_UNIVERSAL_TIME_OFFSET ( 1, 0, .AHEAD. ) ;
#174 = CARTESIAN_POINT ( 'NONE',  ( 1.745740669421566678E-13, 1.199999999999995515, 50.00000000000000000 ) ) ;
#175 = FACE_OUTER_BOUND ( 'NONE', #179, .T. ) ;
#176 = ADVANCED_FACE ( 'NONE', ( #153 ), #31, .F. ) ;
#177 = APPLICATION_CONTEXT ( 'configuration controlled 3d designs of mechanical parts and assemblies' ) ;
#178 = SECURITY_CLASSIFICATION_LEVEL ( 'unclassified' ) ;
#179 = EDGE_LOOP ( 'NONE', ( #7 ) ) ;
#180 = DATE_AND_TIME ( #202, #134 ) ;
#181 = ADVANCED_FACE ( 'NONE', ( #219, #290 ), #55, .T. ) ;
#182 = CARTESIAN_POINT ( 'NONE',  ( 0.0000000000000000000, 0.0000000000000000000, 0.0000000000000000000 ) ) ;
#183 = EDGE_LOOP ( 'NONE', ( #143 ) ) ;
#184 = AXIS2_PLACEMENT_3D ( 'NONE', #82, #191, #84 ) ;
#185 = ORIENTED_EDGE ( 'NONE', *, *, #119, .F. ) ;
#186 = PERSON_AND_ORGANIZATION ( #208, #91 ) ;
#187 = CARTESIAN_POINT ( 'NONE',  ( 8.728703347107833388E-16, 0.8234999999999991216, 0.2500000000000000000 ) ) ;
#188 = AXIS2_PLACEMENT_3D ( 'NONE', #67, #115, #209 ) ;
#189 = EDGE_LOOP ( 'NONE', ( #140 ) ) ;
#190 = CARTESIAN_POINT ( 'NONE',  ( 1.745740669421566678E-13, -6.123233995736766085E-15, 50.00000000000000000 ) ) ;
#191 = DIRECTION ( 'NONE',  ( 3.491481338843133355E-15, -1.224646799147353207E-16, 1.000000000000000000 ) ) ;
#192 = CONICAL_SURFACE ( 'NONE', #128, 0.8235000000000000098, 0.5235987755982981495 ) ;
#193 = DIRECTION ( 'NONE',  ( -3.491481338843133355E-15, 1.224646799147353207E-16, -1.000000000000000000 ) ) ;
#194 = DIRECTION ( 'NONE',  ( 0.0000000000000000000, 1.000000000000000000, 0.0000000000000000000 ) ) ;
#195 =( NAMED_UNIT ( * ) SI_UNIT ( $, .STERADIAN. ) SOLID_ANGLE_UNIT ( ) );
#196 = CONICAL_SURFACE ( 'NONE', #106, 1.499999999999996669, 0.1745329251994260644 ) ;
#197 = DIRECTION ( 'NONE',  ( -3.491481338843133355E-15, 1.224646799147353207E-16, -1.000000000000000000 ) ) ;
#198 =( NAMED_UNIT ( * ) PLANE_ANGLE_UNIT ( ) SI_UNIT ( $, .RADIAN. ) );
#199 = VERTEX_POINT ( 'NONE', #174 ) ;
#200 = APPROVAL_PERSON_ORGANIZATION ( #186, #1, #291 ) ;
#201 = DIRECTION ( 'NONE',  ( 3.491481338843133355E-15, -1.224646799147353207E-16, 1.000000000000000000 ) ) ;
#202 = CALENDAR_DATE ( 2021, 30, 11 ) ;
#203 = PERSON_AND_ORGANIZATION_ROLE ( 'creator' ) ;
#204 = PERSON_AND_ORGANIZATION_ROLE ( 'creator' ) ;
#205 = PRODUCT_DEFINITION_FORMATION_WITH_SPECIFIED_SOURCE ( 'ANY', '', #26, .NOT_KNOWN. ) ;
#206 = ADVANCED_FACE ( 'NONE', ( #245, #221 ), #192, .T. ) ;
#207 = CIRCLE ( 'NONE', #188, 0.6791624327025949093 ) ;
#208 = PERSON ( 'UNSPECIFIED', 'UNSPECIFIED', 'UNSPECIFIED', ('UNSPECIFIED'), ('UNSPECIFIED'), ('UNSPECIFIED') ) ;
#209 = DIRECTION ( 'NONE',  ( 4.275831445896958607E-31, 1.000000000000000000, 1.224646799147352961E-16 ) ) ;
#210 = EDGE_CURVE ( 'NONE', #246, #246, #112, .T. ) ;
#211 = CYLINDRICAL_SURFACE ( 'NONE', #136, 1.499999999999999112 ) ;
#212 = AXIS2_PLACEMENT_3D ( 'NONE', #266, #269, #286 ) ;
#213 = EDGE_LOOP ( 'NONE', ( #259 ) ) ;
#214 = ORIENTED_EDGE ( 'NONE', *, *, #261, .F. ) ;
#215 = AXIS2_PLACEMENT_3D ( 'NONE', #6, #145, #113 ) ;
#216 = ORIENTED_EDGE ( 'NONE', *, *, #276, .T. ) ;
#217 = AXIS2_PLACEMENT_3D ( 'NONE', #190, #193, #29 ) ;
#218 = DIRECTION ( 'NONE',  ( -3.491481338843133355E-15, 1.224646799147353207E-16, -1.000000000000000000 ) ) ;
#219 = FACE_OUTER_BOUND ( 'NONE', #43, .T. ) ;
#220 = FACE_OUTER_BOUND ( 'NONE', #139, .T. ) ;
#221 = FACE_OUTER_BOUND ( 'NONE', #189, .T. ) ;
#222 = CARTESIAN_POINT ( 'NONE',  ( 5.707628016518648493E-14, 0.7503844939755798249, 16.34729635533384595 ) ) ;
#223 = LOCAL_TIME ( 9, 32, 38.00000000000000000, #297 ) ;
#224 = DIRECTION ( 'NONE',  ( -3.491481338843133355E-15, 1.224646799147353207E-16, -1.000000000000000000 ) ) ;
#225 = DIRECTION ( 'NONE',  ( 0.0000000000000000000, -1.000000000000000000, 0.0000000000000000000 ) ) ;
#226 = CARTESIAN_POINT ( 'NONE',  ( 2.444036937190193349E-14, 0.8234999999999991216, 7.000000000000000000 ) ) ;
#227 = PERSON_AND_ORGANIZATION ( #208, #91 ) ;
#228 = DIRECTION ( 'NONE',  ( 0.0000000000000000000, 1.000000000000000000, 0.0000000000000000000 ) ) ;
#229 = APPLICATION_PROTOCOL_DEFINITION ( 'international standard', 'config_control_design', 1994, #95 ) ;
#230 = AXIS2_PLACEMENT_3D ( 'NONE', #148, #133, #77 ) ;
#231 = CONICAL_SURFACE ( 'NONE', #116, 1.200000000000001732, 0.7853981633974453924 ) ;
#232 = CC_DESIGN_DATE_AND_TIME_ASSIGNMENT ( #271, #57, ( #159 ) ) ;
#233 = PERSON_AND_ORGANIZATION_ROLE ( 'design_supplier' ) ;
#234 = AXIS2_PLACEMENT_3D ( 'NONE', #93, #302, #238 ) ;
#235 = PERSON_AND_ORGANIZATION ( #208, #91 ) ;
#236 = ADVANCED_BREP_SHAPE_REPRESENTATION ( '326973', ( #256, #49, #215 ), #288 ) ;
#237 = ORIENTED_EDGE ( 'NONE', *, *, #13, .F. ) ;
#238 = DIRECTION ( 'NONE',  ( 0.0000000000000000000, 1.000000000000000000, 0.0000000000000000000 ) ) ;
#239 = AXIS2_PLACEMENT_3D ( 'NONE', #9, #166, #157 ) ;
#240 = EDGE_LOOP ( 'NONE', ( #92 ) ) ;
#241 = ORIENTED_EDGE ( 'NONE', *, *, #261, .T. ) ;
#242 = APPLICATION_PROTOCOL_DEFINITION ( 'international standard', 'config_control_design', 1994, #177 ) ;
#243 = LOCAL_TIME ( 9, 32, 38.00000000000000000, #132 ) ;
#244 = DIRECTION ( 'NONE',  ( 0.0000000000000000000, 1.000000000000000000, 0.0000000000000000000 ) ) ;
#245 = FACE_BOUND ( 'NONE', #101, .T. ) ;
#246 = VERTEX_POINT ( 'NONE', #72 ) ;
#247 = FACE_BOUND ( 'NONE', #183, .T. ) ;
#248 = VERTEX_POINT ( 'NONE', #16 ) ;
#249 = DIRECTION ( 'NONE',  ( 3.491481338843133355E-15, -1.224646799147353207E-16, 1.000000000000000000 ) ) ;
#250 = APPROVAL ( #254, 'UNSPECIFIED' ) ;
#251 = APPROVAL_STATUS ( 'not_yet_approved' ) ;
#252 = VERTEX_POINT ( 'NONE', #110 ) ;
#253 = FACE_OUTER_BOUND ( 'NONE', #75, .T. ) ;
#254 = APPROVAL_STATUS ( 'not_yet_approved' ) ;
#255 = AXIS2_PLACEMENT_3D ( 'NONE', #123, #218, #8 ) ;
#256 = MANIFOLD_SOLID_BREP ( 'Corps-Déplacer/Copier1[1]', #20 ) ;
#257 = APPROVAL_PERSON_ORGANIZATION ( #275, #250, #38 ) ;
#258 = AXIS2_PLACEMENT_3D ( 'NONE', #149, #224, #50 ) ;
#259 = ORIENTED_EDGE ( 'NONE', *, *, #19, .T. ) ;
#260 = ORIENTED_EDGE ( 'NONE', *, *, #119, .T. ) ;
#261 = EDGE_CURVE ( 'NONE', #268, #268, #45, .T. ) ;
#262 = ORIENTED_EDGE ( 'NONE', *, *, #65, .F. ) ;
#263 = CIRCLE ( 'NONE', #234, 0.8235000000000000098 ) ;
#264 =( LENGTH_UNIT ( ) NAMED_UNIT ( * ) SI_UNIT ( .MILLI., .METRE. ) );
#265 = LOCAL_TIME ( 9, 32, 38.00000000000000000, #97 ) ;
#266 = CARTESIAN_POINT ( 'NONE',  ( 1.735266225405037467E-13, -6.086494591762345225E-15, 49.70000000000000284 ) ) ;
#267 = CARTESIAN_POINT ( 'NONE',  ( 8.728703347107829444E-16, -3.061616997868381785E-17, 0.2499999999999998890 ) ) ;
#268 = VERTEX_POINT ( 'NONE', #187 ) ;
#269 = DIRECTION ( 'NONE',  ( -3.491481338843133355E-15, 1.224646799147353207E-16, -1.000000000000000000 ) ) ;
#270 = VERTEX_POINT ( 'NONE', #155 ) ;
#271 = DATE_AND_TIME ( #88, #62 ) ;
#272 = DIRECTION ( 'NONE',  ( -3.491481338843133355E-15, 1.224646799147353207E-16, -1.000000000000000000 ) ) ;
#273 = CALENDAR_DATE ( 2021, 30, 11 ) ;
#274 = VERTEX_POINT ( 'NONE', #103 ) ;
#275 = PERSON_AND_ORGANIZATION ( #208, #91 ) ;
#276 = EDGE_CURVE ( 'NONE', #284, #284, #299, .T. ) ;
#277 = EDGE_LOOP ( 'NONE', ( #262 ) ) ;
#278 = DIRECTION ( 'NONE',  ( 4.275831445896958607E-31, 1.000000000000000000, 1.224646799147353454E-16 ) ) ;
#279 = DIRECTION ( 'NONE',  ( -4.275831445896958607E-31, -1.000000000000000000, -1.224646799147353207E-16 ) ) ;
#280 = AXIS2_PLACEMENT_3D ( 'NONE', #60, #272, #228 ) ;
#281 = UNCERTAINTY_MEASURE_WITH_UNIT (LENGTH_MEASURE( 1.000000000000000082E-05 ), #264, 'distance_accuracy_value', 'NONE');
#282 = EDGE_LOOP ( 'NONE', ( #120 ) ) ;
#283 = CLOSED_SHELL ( 'NONE', ( #176, #162, #170, #293 ) ) ;
#284 = VERTEX_POINT ( 'NONE', #222 ) ;
#285 = ORIENTED_EDGE ( 'NONE', *, *, #98, .T. ) ;
#286 = DIRECTION ( 'NONE',  ( 0.0000000000000000000, 1.000000000000000000, 0.0000000000000000000 ) ) ;
#287 = DIRECTION ( 'NONE',  ( -3.491481338843133355E-15, 1.224646799147353207E-16, -1.000000000000000000 ) ) ;
#288 =( GEOMETRIC_REPRESENTATION_CONTEXT ( 3 ) GLOBAL_UNCERTAINTY_ASSIGNED_CONTEXT ( ( #281 ) ) GLOBAL_UNIT_ASSIGNED_CONTEXT ( ( #264, #198, #195 ) ) REPRESENTATION_CONTEXT ( 'NONE', 'WORKASPACE' ) );
#289 = DIRECTION ( 'NONE',  ( -3.491481338843133355E-15, 1.224646799147353207E-16, -1.000000000000000000 ) ) ;
#290 = FACE_OUTER_BOUND ( 'NONE', #277, .T. ) ;
#291 = APPROVAL_ROLE ( '' ) ;
#292 = CARTESIAN_POINT ( 'NONE',  ( 1.745740669421566678E-13, -6.123233995736766085E-15, 50.00000000000000000 ) ) ;
#293 = ADVANCED_FACE ( 'NONE', ( #175 ), #126, .T. ) ;
#294 = CARTESIAN_POINT ( 'NONE',  ( 0.0000000000000000000, 0.0000000000000000000, 0.0000000000000000000 ) ) ;
#295 = SECURITY_CLASSIFICATION ( '', '', #178 ) ;
#296 = DIRECTION ( 'NONE',  ( -3.491481338843133355E-15, 1.224646799147353207E-16, -1.000000000000000000 ) ) ;
#297 = COORDINATED_UNIVERSAL_TIME_OFFSET ( 1, 0, .AHEAD. ) ;
#298 = SHAPE_DEFINITION_REPRESENTATION ( #3, #236 ) ;
#299 = CIRCLE ( 'NONE', #163, 0.7503844939755818233 ) ;
#300 = CC_DESIGN_PERSON_AND_ORGANIZATION_ASSIGNMENT ( #61, #233, ( #205 ) ) ;
#301 = CIRCLE ( 'NONE', #217, 1.200000000000001732 ) ;
#302 = DIRECTION ( 'NONE',  ( -3.491481338843133355E-15, 1.224646799147353207E-16, -1.000000000000000000 ) ) ;
#303 = EDGE_LOOP ( 'NONE', ( #122 ) ) ;
ENDSEC;
END-ISO-10303-21;
