ISO-10303-21;
HEADER;
FILE_DESCRIPTION (( 'STEP AP203' ),
    '1' );
FILE_NAME ('326972.step',
    '2021-11-30T08:32:38',
    ( '' ),
    ( '' ),
    'SwSTEP 2.0',
    'SolidWorks 2019',
    '' );
FILE_SCHEMA (( 'CONFIG_CONTROL_DESIGN' ));
ENDSEC;

DATA;
#1 = CARTESIAN_POINT ( 'NONE',  ( 0.0000000000000000000, 0.0000000000000000000, 0.0000000000000000000 ) ) ;
#2 = CARTESIAN_POINT ( 'NONE',  ( 8.728703347107829444E-16, -3.061616997868381785E-17, 0.2499999999999998890 ) ) ;
#3 = DIRECTION ( 'NONE',  ( -3.491481338843133355E-15, 1.224646799147353207E-16, -1.000000000000000000 ) ) ;
#4 = DIRECTION ( 'NONE',  ( 3.491481338843133355E-15, -1.224646799147353207E-16, 1.000000000000000000 ) ) ;
#5 = DIRECTION ( 'NONE',  ( -3.491481338843133355E-15, 1.224646799147353207E-16, -1.000000000000000000 ) ) ;
#6 =( NAMED_UNIT ( * ) PLANE_ANGLE_UNIT ( ) SI_UNIT ( $, .RADIAN. ) );
#7 = ORIENTED_EDGE ( 'NONE', *, *, #160, .F. ) ;
#8 = AXIS2_PLACEMENT_3D ( 'NONE', #2, #46, #88 ) ;
#9 = CIRCLE ( 'NONE', #250, 1.200000000000001732 ) ;
#10 = EDGE_LOOP ( 'NONE', ( #288 ) ) ;
#11 = MANIFOLD_SOLID_BREP ( 'Corps-Déplacer/Copier1[2]', #100 ) ;
#12 = ORIENTED_EDGE ( 'NONE', *, *, #258, .T. ) ;
#13 = CC_DESIGN_DATE_AND_TIME_ASSIGNMENT ( #150, #211, ( #269 ) ) ;
#14 = EDGE_CURVE ( 'NONE', #234, #234, #216, .T. ) ;
#15 = COORDINATED_UNIVERSAL_TIME_OFFSET ( 1, 0, .AHEAD. ) ;
#16 = APPROVAL_STATUS ( 'not_yet_approved' ) ;
#17 = CIRCLE ( 'NONE', #134, 0.6741624327025947938 ) ;
#18 = LOCAL_TIME ( 9, 32, 38.00000000000000000, #15 ) ;
#19 = DIRECTION ( 'NONE',  ( -3.491481338843133355E-15, 1.224646799147353207E-16, -1.000000000000000000 ) ) ;
#20 = DIRECTION ( 'NONE',  ( 0.0000000000000000000, 1.000000000000000000, 0.0000000000000000000 ) ) ;
#21 = APPROVAL_DATE_TIME ( #169, #198 ) ;
#22 = DIRECTION ( 'NONE',  ( 0.0000000000000000000, 1.000000000000000000, 0.0000000000000000000 ) ) ;
#23 = DIRECTION ( 'NONE',  ( 3.491481338843133355E-15, -1.224646799147353207E-16, 1.000000000000000000 ) ) ;
#24 = ADVANCED_FACE ( 'NONE', ( #196, #130 ), #47, .T. ) ;
#25 = CARTESIAN_POINT ( 'NONE',  ( 7.201855358641755750E-14, -2.526070815490930916E-15, 20.62693355545190244 ) ) ;
#26 = DIRECTION ( 'NONE',  ( -4.275831445896958607E-31, -1.000000000000000000, -1.224646799147353207E-16 ) ) ;
#27 = ADVANCED_FACE ( 'NONE', ( #111 ), #86, .T. ) ;
#28 = DIRECTION ( 'NONE',  ( 0.0000000000000000000, 1.000000000000000000, 0.0000000000000000000 ) ) ;
#29 = DIRECTION ( 'NONE',  ( 4.275831445896958607E-31, 1.000000000000000000, 1.224646799147353454E-16 ) ) ;
#30 = EDGE_LOOP ( 'NONE', ( #37 ) ) ;
#31 = PRODUCT ( '326972', '326972', '', ( #126 ) ) ;
#32 = CARTESIAN_POINT ( 'NONE',  ( 1.745740669421566678E-13, 1.199999999999995515, 50.00000000000000000 ) ) ;
#33 = CIRCLE ( 'NONE', #139, 0.7453844939755820409 ) ;
#34 = LOCAL_TIME ( 9, 32, 38.00000000000000000, #72 ) ;
#35 = APPLICATION_PROTOCOL_DEFINITION ( 'international standard', 'config_control_design', 1994, #252 ) ;
#36 = EDGE_LOOP ( 'NONE', ( #292 ) ) ;
#37 = ORIENTED_EDGE ( 'NONE', *, *, #226, .T. ) ;
#38 = DATE_AND_TIME ( #210, #18 ) ;
#39 = CIRCLE ( 'NONE', #121, 0.7150000000000011902 ) ;
#40 = PERSON_AND_ORGANIZATION ( #141, #266 ) ;
#41 = AXIS2_PLACEMENT_3D ( 'NONE', #233, #70, #28 ) ;
#42 = ORIENTED_EDGE ( 'NONE', *, *, #203, .T. ) ;
#43 = APPROVAL_DATE_TIME ( #123, #286 ) ;
#44 = CARTESIAN_POINT ( 'NONE',  ( 2.444036937190193349E-14, 0.8184999999999991172, 7.000000000000000000 ) ) ;
#45 = CYLINDRICAL_SURFACE ( 'NONE', #125, 1.499999999999999112 ) ;
#46 = DIRECTION ( 'NONE',  ( 3.491481338843133355E-15, -1.224646799147353207E-16, 1.000000000000000000 ) ) ;
#47 = CYLINDRICAL_SURFACE ( 'NONE', #120, 0.7150000000000006350 ) ;
#48 = ADVANCED_FACE ( 'NONE', ( #87, #67 ), #215, .T. ) ;
#49 = CARTESIAN_POINT ( 'NONE',  ( 5.707628016518648493E-14, -2.001966415627278844E-15, 16.34729635533384595 ) ) ;
#50 = CARTESIAN_POINT ( 'NONE',  ( -2.387670377887654261E-31, 8.374820318151613208E-33, -6.838559757786889561E-17 ) ) ;
#51 = CC_DESIGN_PERSON_AND_ORGANIZATION_ASSIGNMENT ( #59, #262, ( #269 ) ) ;
#52 = FACE_OUTER_BOUND ( 'NONE', #58, .T. ) ;
#53 = PLANE ( 'NONE',  #244 ) ;
#54 = CALENDAR_DATE ( 2021, 30, 11 ) ;
#55 = AXIS2_PLACEMENT_3D ( 'NONE', #303, #224, #20 ) ;
#56 = PERSON_AND_ORGANIZATION_ROLE ( 'design_owner' ) ;
#57 = APPROVAL_STATUS ( 'not_yet_approved' ) ;
#58 = EDGE_LOOP ( 'NONE', ( #147 ) ) ;
#59 = PERSON_AND_ORGANIZATION ( #141, #266 ) ;
#60 = CARTESIAN_POINT ( 'NONE',  ( 0.0000000000000000000, 0.0000000000000000000, 0.0000000000000000000 ) ) ;
#61 = TOROIDAL_SURFACE ( 'NONE', #199, 2.715000000000000302, 2.000000000000000000 ) ;
#62 = CARTESIAN_POINT ( 'NONE',  ( 5.707628016518648493E-14, 0.7453844939755800425, 16.34729635533384595 ) ) ;
#63 = DIRECTION ( 'NONE',  ( 0.0000000000000000000, -1.000000000000000000, 0.0000000000000000000 ) ) ;
#64 = CC_DESIGN_PERSON_AND_ORGANIZATION_ASSIGNMENT ( #102, #56, ( #31 ) ) ;
#65 = FACE_OUTER_BOUND ( 'NONE', #30, .T. ) ;
#66 = SHAPE_DEFINITION_REPRESENTATION ( #276, #285 ) ;
#67 = FACE_OUTER_BOUND ( 'NONE', #81, .T. ) ;
#68 = DIRECTION ( 'NONE',  ( 0.0000000000000000000, 1.000000000000000000, 0.0000000000000000000 ) ) ;
#69 = FACE_OUTER_BOUND ( 'NONE', #99, .T. ) ;
#70 = DIRECTION ( 'NONE',  ( -3.491481338843133355E-15, 1.224646799147353207E-16, -1.000000000000000000 ) ) ;
#71 = DIRECTION ( 'NONE',  ( 4.275831445896957731E-31, 1.000000000000000000, 1.224646799147353207E-16 ) ) ;
#72 = COORDINATED_UNIVERSAL_TIME_OFFSET ( 1, 0, .AHEAD. ) ;
#73 = CARTESIAN_POINT ( 'NONE',  ( 1.735266225405037467E-13, 1.499999999999995559, 49.70000000000000284 ) ) ;
#74 = ORIENTED_EDGE ( 'NONE', *, *, #253, .T. ) ;
#75 = APPROVAL_ROLE ( '' ) ;
#76 = ORIENTED_EDGE ( 'NONE', *, *, #179, .F. ) ;
#77 = CIRCLE ( 'NONE', #89, 0.8185000000000000053 ) ;
#78 = CC_DESIGN_SECURITY_CLASSIFICATION ( #109, ( #135 ) ) ;
#79 = DATE_AND_TIME ( #219, #85 ) ;
#80 = CC_DESIGN_PERSON_AND_ORGANIZATION_ASSIGNMENT ( #239, #295, ( #135 ) ) ;
#81 = EDGE_LOOP ( 'NONE', ( #294 ) ) ;
#82 = DIRECTION ( 'NONE',  ( 3.491481338843133355E-15, -1.224646799147353207E-16, 1.000000000000000000 ) ) ;
#83 = CARTESIAN_POINT ( 'NONE',  ( 7.201855358641755750E-14, 1.499999999999994005, 20.62693355545190244 ) ) ;
#84 = AXIS2_PLACEMENT_3D ( 'NONE', #50, #112, #26 ) ;
#85 = LOCAL_TIME ( 9, 32, 38.00000000000000000, #240 ) ;
#86 = PLANE ( 'NONE',  #229 ) ;
#87 = FACE_BOUND ( 'NONE', #165, .T. ) ;
#88 = DIRECTION ( 'NONE',  ( -4.705998642363440415E-31, -1.000000000000000000, -1.324620858259628145E-16 ) ) ;
#89 = AXIS2_PLACEMENT_3D ( 'NONE', #300, #274, #171 ) ;
#90 = FACE_OUTER_BOUND ( 'NONE', #289, .T. ) ;
#91 = CC_DESIGN_APPROVAL ( #198, ( #109 ) ) ;
#92 = ADVANCED_FACE ( 'NONE', ( #230 ), #157, .F. ) ;
#93 = CARTESIAN_POINT ( 'NONE',  ( 5.586370142149013368E-14, 0.7149999999999981926, 16.00000000000000000 ) ) ;
#94 = AXIS2_PLACEMENT_3D ( 'NONE', #200, #275, #228 ) ;
#95 = EDGE_LOOP ( 'NONE', ( #296 ) ) ;
#96 = CC_DESIGN_APPROVAL ( #286, ( #269 ) ) ;
#97 = DIRECTION ( 'NONE',  ( 0.0000000000000000000, 0.0000000000000000000, 1.000000000000000000 ) ) ;
#98 = EDGE_LOOP ( 'NONE', ( #42 ) ) ;
#99 = EDGE_LOOP ( 'NONE', ( #144 ) ) ;
#100 = CLOSED_SHELL ( 'NONE', ( #221, #185, #116, #27 ) ) ;
#101 = PERSON_AND_ORGANIZATION ( #141, #266 ) ;
#102 = PERSON_AND_ORGANIZATION ( #141, #266 ) ;
#103 = VERTEX_POINT ( 'NONE', #32 ) ;
#104 = APPROVAL_ROLE ( '' ) ;
#105 = EDGE_CURVE ( 'NONE', #195, #195, #77, .T. ) ;
#106 = DIRECTION ( 'NONE',  ( 4.705998642363440415E-31, 1.000000000000000000, 1.324620858259628145E-16 ) ) ;
#107 = FACE_BOUND ( 'NONE', #191, .T. ) ;
#108 = FACE_BOUND ( 'NONE', #124, .T. ) ;
#109 = SECURITY_CLASSIFICATION ( '', '', #188 ) ;
#110 = CYLINDRICAL_SURFACE ( 'NONE', #291, 0.8184999999999995612 ) ;
#111 = FACE_OUTER_BOUND ( 'NONE', #10, .T. ) ;
#112 = DIRECTION ( 'NONE',  ( 3.491481338843133355E-15, -1.224646799147353207E-16, 1.000000000000000000 ) ) ;
#113 = CONICAL_SURFACE ( 'NONE', #265, 1.499999999999996669, 0.1745329251994258979 ) ;
#114 = DIRECTION ( 'NONE',  ( -3.491481338843133355E-15, 1.224646799147353207E-16, -1.000000000000000000 ) ) ;
#115 = DIRECTION ( 'NONE',  ( 0.0000000000000000000, 1.000000000000000000, 0.0000000000000000000 ) ) ;
#116 = ADVANCED_FACE ( 'NONE', ( #197, #65 ), #110, .T. ) ;
#117 = ORIENTED_EDGE ( 'NONE', *, *, #270, .T. ) ;
#118 = DIRECTION ( 'NONE',  ( -3.491481338843133355E-15, 1.224646799147353207E-16, -1.000000000000000000 ) ) ;
#119 =( NAMED_UNIT ( * ) SI_UNIT ( $, .STERADIAN. ) SOLID_ANGLE_UNIT ( ) );
#120 = AXIS2_PLACEMENT_3D ( 'NONE', #1, #246, #137 ) ;
#121 = AXIS2_PLACEMENT_3D ( 'NONE', #209, #138, #206 ) ;
#122 = CC_DESIGN_DATE_AND_TIME_ASSIGNMENT ( #79, #264, ( #109 ) ) ;
#123 = DATE_AND_TIME ( #54, #279 ) ;
#124 = EDGE_LOOP ( 'NONE', ( #7 ) ) ;
#125 = AXIS2_PLACEMENT_3D ( 'NONE', #178, #280, #29 ) ;
#126 = MECHANICAL_CONTEXT ( 'NONE', #297, 'mechanical' ) ;
#127 = PERSON_AND_ORGANIZATION ( #141, #266 ) ;
#128 = CARTESIAN_POINT ( 'NONE',  ( 8.728703347107829444E-16, -3.061616997868381785E-17, 0.2499999999999998890 ) ) ;
#129 = CIRCLE ( 'NONE', #41, 0.7150000000000001910 ) ;
#130 = FACE_OUTER_BOUND ( 'NONE', #186, .T. ) ;
#131 = VERTEX_POINT ( 'NONE', #62 ) ;
#132 = CARTESIAN_POINT ( 'NONE',  ( 2.444036937190193349E-14, -8.572527594031473190E-16, 7.000000000000000000 ) ) ;
#133 = DIRECTION ( 'NONE',  ( 0.0000000000000000000, 1.000000000000000000, 0.0000000000000000000 ) ) ;
#134 = AXIS2_PLACEMENT_3D ( 'NONE', #201, #154, #158 ) ;
#135 = PRODUCT_DEFINITION_FORMATION_WITH_SPECIFIED_SOURCE ( 'ANY', '', #31, .NOT_KNOWN. ) ;
#136 = FACE_OUTER_BOUND ( 'NONE', #98, .T. ) ;
#137 = DIRECTION ( 'NONE',  ( 4.275831445896959482E-31, 1.000000000000000000, 1.224646799147353454E-16 ) ) ;
#138 = DIRECTION ( 'NONE',  ( -3.491481338843133355E-15, 1.224646799147353207E-16, -1.000000000000000000 ) ) ;
#139 = AXIS2_PLACEMENT_3D ( 'NONE', #49, #247, #22 ) ;
#140 = DIRECTION ( 'NONE',  ( 0.0000000000000000000, 1.000000000000000000, 0.0000000000000000000 ) ) ;
#141 = PERSON ( 'UNSPECIFIED', 'UNSPECIFIED', 'UNSPECIFIED', ('UNSPECIFIED'), ('UNSPECIFIED'), ('UNSPECIFIED') ) ;
#142 = ORIENTED_EDGE ( 'NONE', *, *, #179, .T. ) ;
#143 = CARTESIAN_POINT ( 'NONE',  ( 2.444036937190193349E-14, 6.137766910543639725E-33, 7.000000000000000000 ) ) ;
#144 = ORIENTED_EDGE ( 'NONE', *, *, #235, .F. ) ;
#145 = CC_DESIGN_PERSON_AND_ORGANIZATION_ASSIGNMENT ( #127, #168, ( #109 ) ) ;
#146 = AXIS2_PLACEMENT_3D ( 'NONE', #175, #277, #68 ) ;
#147 = ORIENTED_EDGE ( 'NONE', *, *, #160, .T. ) ;
#148 = APPROVAL_STATUS ( 'not_yet_approved' ) ;
#149 = COORDINATED_UNIVERSAL_TIME_OFFSET ( 1, 0, .AHEAD. ) ;
#150 = DATE_AND_TIME ( #166, #34 ) ;
#151 = PRODUCT_RELATED_PRODUCT_CATEGORY ( 'detail', '', ( #31 ) ) ;
#152 = CIRCLE ( 'NONE', #161, 1.500000000000001554 ) ;
#153 = ORIENTED_EDGE ( 'NONE', *, *, #253, .F. ) ;
#154 = DIRECTION ( 'NONE',  ( -3.491481338843133355E-15, 1.224646799147353207E-16, -1.000000000000000000 ) ) ;
#155 = VERTEX_POINT ( 'NONE', #225 ) ;
#156 = CARTESIAN_POINT ( 'NONE',  ( 0.0000000000000000000, 0.0000000000000000000, 0.0000000000000000000 ) ) ;
#157 = PLANE ( 'NONE',  #94 ) ;
#158 = DIRECTION ( 'NONE',  ( 4.275831445896958607E-31, 1.000000000000000000, 1.224646799147353207E-16 ) ) ;
#159 = DIRECTION ( 'NONE',  ( -4.275831445896958607E-31, -1.000000000000000000, -1.224646799147353207E-16 ) ) ;
#160 = EDGE_CURVE ( 'NONE', #131, #131, #33, .T. ) ;
#161 = AXIS2_PLACEMENT_3D ( 'NONE', #281, #118, #140 ) ;
#162 = CC_DESIGN_APPROVAL ( #261, ( #135 ) ) ;
#163 = CARTESIAN_POINT ( 'NONE',  ( 1.745740669421566678E-13, -6.123233995736766085E-15, 50.00000000000000000 ) ) ;
#164 = COORDINATED_UNIVERSAL_TIME_OFFSET ( 1, 0, .AHEAD. ) ;
#165 = EDGE_LOOP ( 'NONE', ( #74 ) ) ;
#166 = CALENDAR_DATE ( 2021, 30, 11 ) ;
#167 = EDGE_LOOP ( 'NONE', ( #208 ) ) ;
#168 = PERSON_AND_ORGANIZATION_ROLE ( 'classification_officer' ) ;
#169 = DATE_AND_TIME ( #293, #177 ) ;
#170 = EDGE_LOOP ( 'NONE', ( #242 ) ) ;
#171 = DIRECTION ( 'NONE',  ( 0.0000000000000000000, 1.000000000000000000, 0.0000000000000000000 ) ) ;
#172 = DIRECTION ( 'NONE',  ( 4.275831445896958607E-31, 1.000000000000000000, 1.224646799147353207E-16 ) ) ;
#173 = ADVANCED_FACE ( 'NONE', ( #108, #136 ), #113, .T. ) ;
#174 = DIRECTION ( 'NONE',  ( -3.491481338843133355E-15, 1.224646799147353207E-16, -1.000000000000000000 ) ) ;
#175 = CARTESIAN_POINT ( 'NONE',  ( 7.201855358641755750E-14, -2.526070815490930916E-15, 20.62693355545190244 ) ) ;
#176 = CONICAL_SURFACE ( 'NONE', #55, 1.200000000000001732, 0.7853981633974453924 ) ;
#177 = LOCAL_TIME ( 9, 32, 38.00000000000000000, #149 ) ;
#178 = CARTESIAN_POINT ( 'NONE',  ( 0.0000000000000000000, 0.0000000000000000000, 0.0000000000000000000 ) ) ;
#179 = EDGE_CURVE ( 'NONE', #155, #155, #17, .T. ) ;
#180 = DIRECTION ( 'NONE',  ( -3.491481338843133355E-15, 1.224646799147353207E-16, -1.000000000000000000 ) ) ;
#181 = DIRECTION ( 'NONE',  ( 0.0000000000000000000, 1.000000000000000000, 0.0000000000000000000 ) ) ;
#182 = CLOSED_SHELL ( 'NONE', ( #278, #48, #24, #273, #173, #222, #212, #92 ) ) ;
#183 = AXIS2_PLACEMENT_3D ( 'NONE', #60, #97, #187 ) ;
#184 = EDGE_LOOP ( 'NONE', ( #117 ) ) ;
#185 = ADVANCED_FACE ( 'NONE', ( #107, #232 ), #193, .T. ) ;
#186 = EDGE_LOOP ( 'NONE', ( #153 ) ) ;
#187 = DIRECTION ( 'NONE',  ( 1.000000000000000000, 0.0000000000000000000, 0.0000000000000000000 ) ) ;
#188 = SECURITY_CLASSIFICATION_LEVEL ( 'unclassified' ) ;
#189 = APPROVAL_ROLE ( '' ) ;
#190 =( LENGTH_UNIT ( ) NAMED_UNIT ( * ) SI_UNIT ( .MILLI., .METRE. ) );
#191 = EDGE_LOOP ( 'NONE', ( #76 ) ) ;
#192 = PERSON_AND_ORGANIZATION ( #141, #266 ) ;
#193 = CONICAL_SURFACE ( 'NONE', #8, 0.8184999999999991172, 0.5235987755982925984 ) ;
#194 = APPROVAL_PERSON_ORGANIZATION ( #40, #198, #104 ) ;
#195 = VERTEX_POINT ( 'NONE', #44 ) ;
#196 = FACE_OUTER_BOUND ( 'NONE', #213, .T. ) ;
#197 = FACE_OUTER_BOUND ( 'NONE', #299, .T. ) ;
#198 = APPROVAL ( #57, 'UNSPECIFIED' ) ;
#199 = AXIS2_PLACEMENT_3D ( 'NONE', #282, #114, #71 ) ;
#200 = CARTESIAN_POINT ( 'NONE',  ( 1.745740669421566678E-13, 8.998558695971067645E-33, 50.00000000000000000 ) ) ;
#201 = CARTESIAN_POINT ( 'NONE',  ( -4.775340755775308522E-31, 1.674964063630322642E-32, -1.367711951557377912E-16 ) ) ;
#202 = MANIFOLD_SOLID_BREP ( 'Corps-Déplacer/Copier1[1]', #182 ) ;
#203 = EDGE_CURVE ( 'NONE', #301, #301, #237, .T. ) ;
#204 = FACE_OUTER_BOUND ( 'NONE', #167, .T. ) ;
#205 = APPROVAL_PERSON_ORGANIZATION ( #192, #286, #75 ) ;
#206 = DIRECTION ( 'NONE',  ( 0.0000000000000000000, 1.000000000000000000, 0.0000000000000000000 ) ) ;
#207 = CARTESIAN_POINT ( 'NONE',  ( 2.444036937190193349E-14, -8.572527594031473190E-16, 7.000000000000000000 ) ) ;
#208 = ORIENTED_EDGE ( 'NONE', *, *, #203, .F. ) ;
#209 = CARTESIAN_POINT ( 'NONE',  ( 2.506627765991136237E-14, -8.792066668447526579E-16, 7.179267258583377220 ) ) ;
#210 = CALENDAR_DATE ( 2021, 30, 11 ) ;
#211 = DATE_TIME_ROLE ( 'creation_date' ) ;
#212 = ADVANCED_FACE ( 'NONE', ( #69, #227 ), #176, .T. ) ;
#213 = EDGE_LOOP ( 'NONE', ( #12 ) ) ;
#214 = APPROVAL_DATE_TIME ( #38, #261 ) ;
#215 = CONICAL_SURFACE ( 'NONE', #223, 0.8185000000000000053, 0.5235987755982974834 ) ;
#216 = CIRCLE ( 'NONE', #249, 0.8184999999999991172 ) ;
#217 = ORIENTED_EDGE ( 'NONE', *, *, #14, .F. ) ;
#218 = CARTESIAN_POINT ( 'NONE',  ( 2.506627765991136237E-14, 0.7150000000000003020, 7.179267258583377220 ) ) ;
#219 = CALENDAR_DATE ( 2021, 30, 11 ) ;
#220 = CARTESIAN_POINT ( 'NONE',  ( 8.728703347107833388E-16, 0.8184999999999991172, 0.2500000000000000000 ) ) ;
#221 = ADVANCED_FACE ( 'NONE', ( #251 ), #243, .F. ) ;
#222 = ADVANCED_FACE ( 'NONE', ( #204, #90 ), #45, .T. ) ;
#223 = AXIS2_PLACEMENT_3D ( 'NONE', #132, #3, #133 ) ;
#224 = DIRECTION ( 'NONE',  ( -3.491481338843133355E-15, 1.224646799147353207E-16, -1.000000000000000000 ) ) ;
#225 = CARTESIAN_POINT ( 'NONE',  ( -1.892735826383161794E-31, 0.6741624327025947938, -5.421010862427522170E-17 ) ) ;
#226 = EDGE_CURVE ( 'NONE', #287, #287, #255, .T. ) ;
#227 = FACE_BOUND ( 'NONE', #184, .T. ) ;
#228 = DIRECTION ( 'NONE',  ( 4.275831445896958607E-31, 1.000000000000000000, 1.224646799147353207E-16 ) ) ;
#229 = AXIS2_PLACEMENT_3D ( 'NONE', #271, #23, #248 ) ;
#230 = FACE_OUTER_BOUND ( 'NONE', #36, .T. ) ;
#231 = APPLICATION_PROTOCOL_DEFINITION ( 'international standard', 'config_control_design', 1994, #297 ) ;
#232 = FACE_OUTER_BOUND ( 'NONE', #263, .T. ) ;
#233 = CARTESIAN_POINT ( 'NONE',  ( 5.586370142149013368E-14, -1.959434878635765131E-15, 16.00000000000000000 ) ) ;
#234 = VERTEX_POINT ( 'NONE', #220 ) ;
#235 = EDGE_CURVE ( 'NONE', #260, #260, #152, .T. ) ;
#236 = PERSON_AND_ORGANIZATION ( #141, #266 ) ;
#237 = CIRCLE ( 'NONE', #146, 1.499999999999996669 ) ;
#238 = EDGE_LOOP ( 'NONE', ( #142 ) ) ;
#239 = PERSON_AND_ORGANIZATION ( #141, #266 ) ;
#240 = COORDINATED_UNIVERSAL_TIME_OFFSET ( 1, 0, .AHEAD. ) ;
#241 = VERTEX_POINT ( 'NONE', #93 ) ;
#242 = ORIENTED_EDGE ( 'NONE', *, *, #258, .F. ) ;
#243 = PLANE ( 'NONE',  #84 ) ;
#244 = AXIS2_PLACEMENT_3D ( 'NONE', #143, #4, #159 ) ;
#245 = UNCERTAINTY_MEASURE_WITH_UNIT (LENGTH_MEASURE( 1.000000000000000082E-05 ), #190, 'distance_accuracy_value', 'NONE');
#246 = DIRECTION ( 'NONE',  ( -3.491481338843133355E-15, 1.224646799147353207E-16, -1.000000000000000000 ) ) ;
#247 = DIRECTION ( 'NONE',  ( -3.491481338843133355E-15, 1.224646799147353207E-16, -1.000000000000000000 ) ) ;
#248 = DIRECTION ( 'NONE',  ( -4.275831445896958607E-31, -1.000000000000000000, -1.224646799147353207E-16 ) ) ;
#249 = AXIS2_PLACEMENT_3D ( 'NONE', #128, #19, #106 ) ;
#250 = AXIS2_PLACEMENT_3D ( 'NONE', #163, #5, #181 ) ;
#251 = FACE_OUTER_BOUND ( 'NONE', #238, .T. ) ;
#252 = APPLICATION_CONTEXT ( 'configuration controlled 3d designs of mechanical parts and assemblies' ) ;
#253 = EDGE_CURVE ( 'NONE', #283, #283, #39, .T. ) ;
#254 = FACE_OUTER_BOUND ( 'NONE', #170, .T. ) ;
#255 = CIRCLE ( 'NONE', #302, 0.8185000000000000053 ) ;
#256 =( GEOMETRIC_REPRESENTATION_CONTEXT ( 3 ) GLOBAL_UNCERTAINTY_ASSIGNED_CONTEXT ( ( #245 ) ) GLOBAL_UNIT_ASSIGNED_CONTEXT ( ( #190, #6, #119 ) ) REPRESENTATION_CONTEXT ( 'NONE', 'WORKASPACE' ) );
#257 = CC_DESIGN_PERSON_AND_ORGANIZATION_ASSIGNMENT ( #101, #290, ( #135 ) ) ;
#258 = EDGE_CURVE ( 'NONE', #241, #241, #129, .T. ) ;
#259 = FACE_OUTER_BOUND ( 'NONE', #95, .T. ) ;
#260 = VERTEX_POINT ( 'NONE', #73 ) ;
#261 = APPROVAL ( #148, 'UNSPECIFIED' ) ;
#262 = PERSON_AND_ORGANIZATION_ROLE ( 'creator' ) ;
#263 = EDGE_LOOP ( 'NONE', ( #268 ) ) ;
#264 = DATE_TIME_ROLE ( 'classification_date' ) ;
#265 = AXIS2_PLACEMENT_3D ( 'NONE', #25, #82, #63 ) ;
#266 = ORGANIZATION ( 'UNSPECIFIED', 'UNSPECIFIED', '' ) ;
#267 = CARTESIAN_POINT ( 'NONE',  ( 2.444036937190193349E-14, 0.8184999999999991172, 7.000000000000000000 ) ) ;
#268 = ORIENTED_EDGE ( 'NONE', *, *, #14, .T. ) ;
#269 = PRODUCT_DEFINITION ( 'UNKNOWN', '', #135, #272 ) ;
#270 = EDGE_CURVE ( 'NONE', #103, #103, #9, .T. ) ;
#271 = CARTESIAN_POINT ( 'NONE',  ( 2.444036937190193349E-14, 6.137766910543639725E-33, 7.000000000000000000 ) ) ;
#272 = DESIGN_CONTEXT ( 'detailed design', #252, 'design' ) ;
#273 = ADVANCED_FACE ( 'NONE', ( #254, #52 ), #61, .F. ) ;
#274 = DIRECTION ( 'NONE',  ( -3.491481338843133355E-15, 1.224646799147353207E-16, -1.000000000000000000 ) ) ;
#275 = DIRECTION ( 'NONE',  ( -3.491481338843133355E-15, 1.224646799147353207E-16, -1.000000000000000000 ) ) ;
#276 = PRODUCT_DEFINITION_SHAPE ( 'NONE', 'NONE',  #269 ) ;
#277 = DIRECTION ( 'NONE',  ( -3.491481338843133355E-15, 1.224646799147353207E-16, -1.000000000000000000 ) ) ;
#278 = ADVANCED_FACE ( 'NONE', ( #259 ), #53, .F. ) ;
#279 = LOCAL_TIME ( 9, 32, 38.00000000000000000, #164 ) ;
#280 = DIRECTION ( 'NONE',  ( -3.491481338843133355E-15, 1.224646799147353207E-16, -1.000000000000000000 ) ) ;
#281 = CARTESIAN_POINT ( 'NONE',  ( 1.735266225405037467E-13, -6.086494591762345225E-15, 49.70000000000000284 ) ) ;
#282 = CARTESIAN_POINT ( 'NONE',  ( 5.586370142149013368E-14, -2.168404344971008868E-15, 16.00000000000000000 ) ) ;
#283 = VERTEX_POINT ( 'NONE', #218 ) ;
#284 = ORIENTED_EDGE ( 'NONE', *, *, #235, .T. ) ;
#285 = ADVANCED_BREP_SHAPE_REPRESENTATION ( '326972', ( #202, #11, #183 ), #256 ) ;
#286 = APPROVAL ( #16, 'UNSPECIFIED' ) ;
#287 = VERTEX_POINT ( 'NONE', #267 ) ;
#288 = ORIENTED_EDGE ( 'NONE', *, *, #226, .F. ) ;
#289 = EDGE_LOOP ( 'NONE', ( #284 ) ) ;
#290 = PERSON_AND_ORGANIZATION_ROLE ( 'design_supplier' ) ;
#291 = AXIS2_PLACEMENT_3D ( 'NONE', #156, #174, #172 ) ;
#292 = ORIENTED_EDGE ( 'NONE', *, *, #270, .F. ) ;
#293 = CALENDAR_DATE ( 2021, 30, 11 ) ;
#294 = ORIENTED_EDGE ( 'NONE', *, *, #105, .F. ) ;
#295 = PERSON_AND_ORGANIZATION_ROLE ( 'creator' ) ;
#296 = ORIENTED_EDGE ( 'NONE', *, *, #105, .T. ) ;
#297 = APPLICATION_CONTEXT ( 'configuration controlled 3d designs of mechanical parts and assemblies' ) ;
#298 = APPROVAL_PERSON_ORGANIZATION ( #236, #261, #189 ) ;
#299 = EDGE_LOOP ( 'NONE', ( #217 ) ) ;
#300 = CARTESIAN_POINT ( 'NONE',  ( 2.444036937190193349E-14, -8.572527594031473190E-16, 7.000000000000000000 ) ) ;
#301 = VERTEX_POINT ( 'NONE', #83 ) ;
#302 = AXIS2_PLACEMENT_3D ( 'NONE', #207, #180, #115 ) ;
#303 = CARTESIAN_POINT ( 'NONE',  ( 1.745740669421566678E-13, -6.123233995736766085E-15, 50.00000000000000000 ) ) ;
ENDSEC;
END-ISO-10303-21;
