ISO-10303-21;
HEADER;
FILE_DESCRIPTION (( 'STEP AP203' ),
    '1' );
FILE_NAME ('326971.step',
    '2021-11-29T14:58:40',
    ( '' ),
    ( '' ),
    'SwSTEP 2.0',
    'SolidWorks 2019',
    '' );
FILE_SCHEMA (( 'CONFIG_CONTROL_DESIGN' ));
ENDSEC;

DATA;
#1 = ORIENTED_EDGE ( 'NONE', *, *, #291, .F. ) ;
#2 = PLANE ( 'NONE',  #3 ) ;
#3 = AXIS2_PLACEMENT_3D ( 'NONE', #118, #281, #232 ) ;
#4 = DIRECTION ( 'NONE',  ( -3.491481338843133355E-15, 1.224646799147352961E-16, -1.000000000000000000 ) ) ;
#5 = EDGE_CURVE ( 'NONE', #207, #207, #280, .T. ) ;
#6 = FACE_OUTER_BOUND ( 'NONE', #257, .T. ) ;
#7 = FACE_OUTER_BOUND ( 'NONE', #27, .T. ) ;
#8 = DIRECTION ( 'NONE',  ( 3.491481338843133355E-15, -1.224646799147352961E-16, 1.000000000000000000 ) ) ;
#9 =( NAMED_UNIT ( * ) PLANE_ANGLE_UNIT ( ) SI_UNIT ( $, .RADIAN. ) );
#10 = VERTEX_POINT ( 'NONE', #37 ) ;
#11 = ORIENTED_EDGE ( 'NONE', *, *, #209, .T. ) ;
#12 = EDGE_CURVE ( 'NONE', #293, #293, #226, .T. ) ;
#13 = PERSON_AND_ORGANIZATION_ROLE ( 'design_owner' ) ;
#14 = CARTESIAN_POINT ( 'NONE',  ( 4.660183614865709749E-14, -1.634572375883072611E-15, 13.34729635533384773 ) ) ;
#15 = MECHANICAL_CONTEXT ( 'NONE', #58, 'mechanical' ) ;
#16 = CARTESIAN_POINT ( 'NONE',  ( 2.139337362889160084E-14, -7.503785354976684277E-16, 6.127305734356316869 ) ) ;
#17 = PRODUCT_DEFINITION_FORMATION_WITH_SPECIFIED_SOURCE ( 'ANY', '', #277, .NOT_KNOWN. ) ;
#18 = CARTESIAN_POINT ( 'NONE',  ( 2.094888803305880013E-14, -7.347880794884118750E-16, 6.000000000000000000 ) ) ;
#19 = DATE_AND_TIME ( #85, #282 ) ;
#20 = PERSON_AND_ORGANIZATION_ROLE ( 'creator' ) ;
#21 = APPROVAL_PERSON_ORGANIZATION ( #265, #44, #125 ) ;
#22 = PERSON_AND_ORGANIZATION ( #250, #302 ) ;
#23 = EDGE_LOOP ( 'NONE', ( #145 ) ) ;
#24 = CC_DESIGN_PERSON_AND_ORGANIZATION_ASSIGNMENT ( #22, #300, ( #17 ) ) ;
#25 = CARTESIAN_POINT ( 'NONE',  ( 6.382124465354759705E-14, -2.238547922712489189E-15, 18.27913096470797782 ) ) ;
#26 = DIRECTION ( 'NONE',  ( 4.275831445896957731E-31, 1.000000000000000000, 1.224646799147352961E-16 ) ) ;
#27 = EDGE_LOOP ( 'NONE', ( #163 ) ) ;
#28 = DIRECTION ( 'NONE',  ( -3.491481338843133355E-15, 1.224646799147352961E-16, -1.000000000000000000 ) ) ;
#29 = AXIS2_PLACEMENT_3D ( 'NONE', #16, #173, #151 ) ;
#30 = AXIS2_PLACEMENT_3D ( 'NONE', #170, #35, #155 ) ;
#31 = CARTESIAN_POINT ( 'NONE',  ( 1.326762908760390423E-13, -4.653657836759941152E-15, 38.00000000000000000 ) ) ;
#32 = DIRECTION ( 'NONE',  ( 0.0000000000000000000, 1.000000000000000000, 0.0000000000000000000 ) ) ;
#33 = CARTESIAN_POINT ( 'NONE',  ( 1.316288464743861212E-13, 1.499999999999998668, 37.69999999999999574 ) ) ;
#34 = ORIENTED_EDGE ( 'NONE', *, *, #291, .T. ) ;
#35 = DIRECTION ( 'NONE',  ( 0.0000000000000000000, 0.0000000000000000000, 1.000000000000000000 ) ) ;
#36 = DIRECTION ( 'NONE',  ( -3.491481338843133355E-15, 1.224646799147352961E-16, -1.000000000000000000 ) ) ;
#37 = CARTESIAN_POINT ( 'NONE',  ( 6.382124465354759705E-14, 1.499999999999995559, 18.27913096470797782 ) ) ;
#38 = ADVANCED_FACE ( 'NONE', ( #143, #7 ), #256, .T. ) ;
#39 = PERSON_AND_ORGANIZATION ( #250, #302 ) ;
#40 = MANIFOLD_SOLID_BREP ( 'Corps-Déplacer/Copier1[1]', #116 ) ;
#41 = AXIS2_PLACEMENT_3D ( 'NONE', #14, #102, #204 ) ;
#42 = SHAPE_DEFINITION_REPRESENTATION ( #84, #63 ) ;
#43 = EDGE_LOOP ( 'NONE', ( #1 ) ) ;
#44 = APPROVAL ( #287, 'UNSPECIFIED' ) ;
#45 = FACE_OUTER_BOUND ( 'NONE', #290, .T. ) ;
#46 = LOCAL_TIME ( 15, 58, 40.00000000000000000, #200 ) ;
#47 = DIRECTION ( 'NONE',  ( 0.0000000000000000000, 1.000000000000000000, 0.0000000000000000000 ) ) ;
#48 = ORIENTED_EDGE ( 'NONE', *, *, #12, .F. ) ;
#49 = AXIS2_PLACEMENT_3D ( 'NONE', #141, #28, #121 ) ;
#50 = DIRECTION ( 'NONE',  ( 0.0000000000000000000, -1.000000000000000000, 0.0000000000000000000 ) ) ;
#51 = FACE_OUTER_BOUND ( 'NONE', #92, .T. ) ;
#52 = ADVANCED_FACE ( 'NONE', ( #279 ), #2, .T. ) ;
#53 = UNCERTAINTY_MEASURE_WITH_UNIT (LENGTH_MEASURE( 1.000000000000000082E-05 ), #156, 'distance_accuracy_value', 'NONE');
#54 = VERTEX_POINT ( 'NONE', #131 ) ;
#55 = DIRECTION ( 'NONE',  ( 0.0000000000000000000, 1.000000000000000000, 0.0000000000000000000 ) ) ;
#56 = APPROVAL_STATUS ( 'not_yet_approved' ) ;
#57 = VERTEX_POINT ( 'NONE', #249 ) ;
#58 = APPLICATION_CONTEXT ( 'configuration controlled 3d designs of mechanical parts and assemblies' ) ;
#59 = CONICAL_SURFACE ( 'NONE', #237, 1.200000000000003286, 0.7853981633974453924 ) ;
#60 = PERSON_AND_ORGANIZATION_ROLE ( 'classification_officer' ) ;
#61 = PERSON_AND_ORGANIZATION ( #250, #302 ) ;
#62 = AXIS2_PLACEMENT_3D ( 'NONE', #284, #146, #238 ) ;
#63 = ADVANCED_BREP_SHAPE_REPRESENTATION ( '326971', ( #40, #138, #30 ), #264 ) ;
#64 = FACE_OUTER_BOUND ( 'NONE', #260, .T. ) ;
#65 = ORIENTED_EDGE ( 'NONE', *, *, #181, .T. ) ;
#66 = FACE_OUTER_BOUND ( 'NONE', #186, .T. ) ;
#67 = EDGE_LOOP ( 'NONE', ( #166 ) ) ;
#68 = DIRECTION ( 'NONE',  ( 0.0000000000000000000, 1.000000000000000000, 0.0000000000000000000 ) ) ;
#69 = AXIS2_PLACEMENT_3D ( 'NONE', #218, #164, #189 ) ;
#70 = PLANE ( 'NONE',  #62 ) ;
#71 = CC_DESIGN_PERSON_AND_ORGANIZATION_ASSIGNMENT ( #298, #20, ( #17 ) ) ;
#72 = COORDINATED_UNIVERSAL_TIME_OFFSET ( 1, 0, .AHEAD. ) ;
#73 = DIRECTION ( 'NONE',  ( -3.491481338843133355E-15, 1.224646799147352961E-16, -1.000000000000000000 ) ) ;
#74 = VERTEX_POINT ( 'NONE', #289 ) ;
#75 = EDGE_LOOP ( 'NONE', ( #235 ) ) ;
#76 = CC_DESIGN_SECURITY_CLASSIFICATION ( #114, ( #17 ) ) ;
#77 = FACE_BOUND ( 'NONE', #94, .T. ) ;
#78 = CONICAL_SURFACE ( 'NONE', #171, 0.6734999999999990994, 0.5235987755982925984 ) ;
#79 = APPROVAL_STATUS ( 'not_yet_approved' ) ;
#80 = DIRECTION ( 'NONE',  ( -3.491481338843133355E-15, 1.224646799147352961E-16, -1.000000000000000000 ) ) ;
#81 = CARTESIAN_POINT ( 'NONE',  ( -9.463679131915806782E-32, 0.5291624327025946650, -2.710505431213761085E-17 ) ) ;
#82 = AXIS2_PLACEMENT_3D ( 'NONE', #244, #107, #241 ) ;
#83 = APPROVAL_DATE_TIME ( #252, #276 ) ;
#84 = PRODUCT_DEFINITION_SHAPE ( 'NONE', 'NONE',  #152 ) ;
#85 = CALENDAR_DATE ( 2021, 29, 11 ) ;
#86 = ADVANCED_FACE ( 'NONE', ( #216, #64 ), #236, .T. ) ;
#87 = CIRCLE ( 'NONE', #159, 1.200000000000003286 ) ;
#88 = ORIENTED_EDGE ( 'NONE', *, *, #228, .T. ) ;
#89 = APPROVAL_PERSON_ORGANIZATION ( #196, #109, #108 ) ;
#90 = ORIENTED_EDGE ( 'NONE', *, *, #181, .F. ) ;
#91 = CYLINDRICAL_SURFACE ( 'NONE', #269, 0.5999999999999993117 ) ;
#92 = EDGE_LOOP ( 'NONE', ( #48 ) ) ;
#93 = DIRECTION ( 'NONE',  ( 3.491481338843133355E-15, -1.224646799147352961E-16, 1.000000000000000000 ) ) ;
#94 = EDGE_LOOP ( 'NONE', ( #172 ) ) ;
#95 = DIRECTION ( 'NONE',  ( 3.491481338843133355E-15, -1.224646799147352961E-16, 1.000000000000000000 ) ) ;
#96 = LOCAL_TIME ( 15, 58, 40.00000000000000000, #179 ) ;
#97 = DIRECTION ( 'NONE',  ( -4.275831445896957731E-31, -1.000000000000000000, -1.224646799147352961E-16 ) ) ;
#98 = DIRECTION ( 'NONE',  ( -3.491481338843133355E-15, 1.224646799147352961E-16, -1.000000000000000000 ) ) ;
#99 = EDGE_CURVE ( 'NONE', #10, #10, #229, .T. ) ;
#100 = DATE_TIME_ROLE ( 'creation_date' ) ;
#101 = CIRCLE ( 'NONE', #140, 1.500000000000003331 ) ;
#102 = DIRECTION ( 'NONE',  ( -3.491481338843133355E-15, 1.224646799147352961E-16, -1.000000000000000000 ) ) ;
#103 = APPROVAL_DATE_TIME ( #147, #44 ) ;
#104 = DIRECTION ( 'NONE',  ( 0.0000000000000000000, 1.000000000000000000, 0.0000000000000000000 ) ) ;
#105 = EDGE_LOOP ( 'NONE', ( #233 ) ) ;
#106 = APPLICATION_PROTOCOL_DEFINITION ( 'international standard', 'config_control_design', 1994, #124 ) ;
#107 = DIRECTION ( 'NONE',  ( -3.491481338843133355E-15, 1.224646799147352961E-16, -1.000000000000000000 ) ) ;
#108 = APPROVAL_ROLE ( '' ) ;
#109 = APPROVAL ( #79, 'UNSPECIFIED' ) ;
#110 = DIRECTION ( 'NONE',  ( 2.859584178748683461E-31, 1.000000000000000000, 1.609802780230892083E-16 ) ) ;
#111 = AXIS2_PLACEMENT_3D ( 'NONE', #25, #4, #47 ) ;
#112 = DIRECTION ( 'NONE',  ( -2.859584178748683461E-31, -1.000000000000000000, -1.609802780230892083E-16 ) ) ;
#113 = CC_DESIGN_PERSON_AND_ORGANIZATION_ASSIGNMENT ( #39, #270, ( #152 ) ) ;
#114 = SECURITY_CLASSIFICATION ( '', '', #274 ) ;
#115 = CC_DESIGN_PERSON_AND_ORGANIZATION_ASSIGNMENT ( #185, #60, ( #114 ) ) ;
#116 = CLOSED_SHELL ( 'NONE', ( #230, #251, #122, #135, #38, #211, #253, #187 ) ) ;
#117 = DIRECTION ( 'NONE',  ( -3.491481338843133355E-15, 1.224646799147352961E-16, -1.000000000000000000 ) ) ;
#118 = CARTESIAN_POINT ( 'NONE',  ( 2.094888803305880013E-14, 5.050441068113791180E-33, 6.000000000000000000 ) ) ;
#119 = EDGE_LOOP ( 'NONE', ( #34 ) ) ;
#120 = AXIS2_PLACEMENT_3D ( 'NONE', #18, #295, #245 ) ;
#121 = DIRECTION ( 'NONE',  ( 4.275831445896958607E-31, 1.000000000000000000, 1.224646799147352961E-16 ) ) ;
#122 = ADVANCED_FACE ( 'NONE', ( #51, #148 ), #91, .T. ) ;
#123 = FACE_OUTER_BOUND ( 'NONE', #231, .T. ) ;
#124 = APPLICATION_CONTEXT ( 'configuration controlled 3d designs of mechanical parts and assemblies' ) ;
#125 = APPROVAL_ROLE ( '' ) ;
#126 = AXIS2_PLACEMENT_3D ( 'NONE', #259, #95, #50 ) ;
#127 = VERTEX_POINT ( 'NONE', #182 ) ;
#128 = LOCAL_TIME ( 15, 58, 40.00000000000000000, #72 ) ;
#129 = CYLINDRICAL_SURFACE ( 'NONE', #82, 1.500000000000000444 ) ;
#130 = CALENDAR_DATE ( 2021, 29, 11 ) ;
#131 = CARTESIAN_POINT ( 'NONE',  ( 2.094888803305880013E-14, 0.6734999999999990994, 6.000000000000000000 ) ) ;
#132 = APPROVAL_DATE_TIME ( #273, #109 ) ;
#133 = FACE_OUTER_BOUND ( 'NONE', #119, .T. ) ;
#134 = CLOSED_SHELL ( 'NONE', ( #168, #258, #86, #52 ) ) ;
#135 = ADVANCED_FACE ( 'NONE', ( #45, #66 ), #212, .F. ) ;
#136 = CIRCLE ( 'NONE', #120, 0.6734999999999998765 ) ;
#137 = APPROVAL_ROLE ( '' ) ;
#138 = MANIFOLD_SOLID_BREP ( 'Corps-Déplacer/Copier1[2]', #134 ) ;
#139 = ORIENTED_EDGE ( 'NONE', *, *, #263, .T. ) ;
#140 = AXIS2_PLACEMENT_3D ( 'NONE', #247, #36, #154 ) ;
#141 = CARTESIAN_POINT ( 'NONE',  ( -3.208977282928667738E-31, 1.125557715103607830E-32, -9.190876225596352423E-17 ) ) ;
#142 = EDGE_LOOP ( 'NONE', ( #222 ) ) ;
#143 = FACE_BOUND ( 'NONE', #23, .T. ) ;
#144 = EDGE_LOOP ( 'NONE', ( #301 ) ) ;
#145 = ORIENTED_EDGE ( 'NONE', *, *, #228, .F. ) ;
#146 = DIRECTION ( 'NONE',  ( -3.491481338843133355E-15, 1.224646799147352961E-16, -1.000000000000000000 ) ) ;
#147 = DATE_AND_TIME ( #203, #96 ) ;
#148 = FACE_OUTER_BOUND ( 'NONE', #303, .T. ) ;
#149 = CARTESIAN_POINT ( 'NONE',  ( 2.094888803305880013E-14, 5.050441068113791180E-33, 6.000000000000000000 ) ) ;
#150 = AXIS2_PLACEMENT_3D ( 'NONE', #214, #93, #97 ) ;
#151 = DIRECTION ( 'NONE',  ( 0.0000000000000000000, 1.000000000000000000, 0.0000000000000000000 ) ) ;
#152 = PRODUCT_DEFINITION ( 'UNKNOWN', '', #17, #242 ) ;
#153 = LOCAL_TIME ( 15, 58, 40.00000000000000000, #184 ) ;
#154 = DIRECTION ( 'NONE',  ( 0.0000000000000000000, 1.000000000000000000, 0.0000000000000000000 ) ) ;
#155 = DIRECTION ( 'NONE',  ( 1.000000000000000000, 0.0000000000000000000, 0.0000000000000000000 ) ) ;
#156 =( LENGTH_UNIT ( ) NAMED_UNIT ( * ) SI_UNIT ( .MILLI., .METRE. ) );
#157 = CC_DESIGN_PERSON_AND_ORGANIZATION_ASSIGNMENT ( #223, #13, ( #277 ) ) ;
#158 = FACE_BOUND ( 'NONE', #142, .T. ) ;
#159 = AXIS2_PLACEMENT_3D ( 'NONE', #31, #285, #55 ) ;
#160 = CALENDAR_DATE ( 2021, 29, 11 ) ;
#161 = EDGE_CURVE ( 'NONE', #57, #57, #176, .T. ) ;
#162 = CIRCLE ( 'NONE', #190, 0.6734999999999998765 ) ;
#163 = ORIENTED_EDGE ( 'NONE', *, *, #99, .T. ) ;
#164 = DIRECTION ( 'NONE',  ( -3.491481338843133355E-15, 1.224646799147352961E-16, -1.000000000000000000 ) ) ;
#165 = DIRECTION ( 'NONE',  ( -3.491481338843133355E-15, 1.224646799147352961E-16, -1.000000000000000000 ) ) ;
#166 = ORIENTED_EDGE ( 'NONE', *, *, #5, .T. ) ;
#167 = ORIENTED_EDGE ( 'NONE', *, *, #161, .T. ) ;
#168 = ADVANCED_FACE ( 'NONE', ( #240 ), #213, .F. ) ;
#169 = DIRECTION ( 'NONE',  ( 0.0000000000000000000, 1.000000000000000000, 0.0000000000000000000 ) ) ;
#170 = CARTESIAN_POINT ( 'NONE',  ( 0.0000000000000000000, 0.0000000000000000000, 0.0000000000000000000 ) ) ;
#171 = AXIS2_PLACEMENT_3D ( 'NONE', #267, #208, #112 ) ;
#172 = ORIENTED_EDGE ( 'NONE', *, *, #5, .F. ) ;
#173 = DIRECTION ( 'NONE',  ( -3.491481338843133355E-15, 1.224646799147352961E-16, -1.000000000000000000 ) ) ;
#174 = CC_DESIGN_DATE_AND_TIME_ASSIGNMENT ( #19, #183, ( #114 ) ) ;
#175 = VERTEX_POINT ( 'NONE', #268 ) ;
#176 = CIRCLE ( 'NONE', #248, 0.5999999999999997558 ) ;
#177 = CONICAL_SURFACE ( 'NONE', #29, 0.5999999999999988676, 0.5235987755982909331 ) ;
#178 = CARTESIAN_POINT ( 'NONE',  ( 8.728703347107831416E-16, -3.061616997868381785E-17, 0.2499999999999999445 ) ) ;
#179 = COORDINATED_UNIVERSAL_TIME_OFFSET ( 1, 0, .AHEAD. ) ;
#180 = FACE_OUTER_BOUND ( 'NONE', #254, .T. ) ;
#181 = EDGE_CURVE ( 'NONE', #74, #74, #162, .T. ) ;
#182 = CARTESIAN_POINT ( 'NONE',  ( 1.326762908760390423E-13, 1.199999999999998845, 38.00000000000000000 ) ) ;
#183 = DATE_TIME_ROLE ( 'classification_date' ) ;
#184 = COORDINATED_UNIVERSAL_TIME_OFFSET ( 1, 0, .AHEAD. ) ;
#185 = PERSON_AND_ORGANIZATION ( #250, #302 ) ;
#186 = EDGE_LOOP ( 'NONE', ( #88 ) ) ;
#187 = ADVANCED_FACE ( 'NONE', ( #6 ), #70, .F. ) ;
#188 = ORIENTED_EDGE ( 'NONE', *, *, #206, .F. ) ;
#189 = DIRECTION ( 'NONE',  ( 4.275831445896957731E-31, 1.000000000000000000, 1.224646799147352961E-16 ) ) ;
#190 = AXIS2_PLACEMENT_3D ( 'NONE', #283, #165, #68 ) ;
#191 = CC_DESIGN_APPROVAL ( #276, ( #114 ) ) ;
#192 = DIRECTION ( 'NONE',  ( -3.491481338843133355E-15, 1.224646799147352961E-16, -1.000000000000000000 ) ) ;
#193 = DIRECTION ( 'NONE',  ( 4.275831445896956855E-31, 1.000000000000000000, 1.224646799147352961E-16 ) ) ;
#194 = CARTESIAN_POINT ( 'NONE',  ( 4.538925740496073993E-14, -1.592040838891558898E-15, 13.00000000000000178 ) ) ;
#195 = AXIS2_PLACEMENT_3D ( 'NONE', #255, #98, #26 ) ;
#196 = PERSON_AND_ORGANIZATION ( #250, #302 ) ;
#197 = CIRCLE ( 'NONE', #271, 0.6734999999999990994 ) ;
#198 = FACE_OUTER_BOUND ( 'NONE', #43, .T. ) ;
#199 = PRODUCT_RELATED_PRODUCT_CATEGORY ( 'detail', '', ( #277 ) ) ;
#200 = COORDINATED_UNIVERSAL_TIME_OFFSET ( 1, 0, .AHEAD. ) ;
#201 = CARTESIAN_POINT ( 'NONE',  ( 4.660183614865709749E-14, 0.6303844939755780530, 13.34729635533384773 ) ) ;
#202 = ORIENTED_EDGE ( 'NONE', *, *, #161, .F. ) ;
#203 = CALENDAR_DATE ( 2021, 29, 11 ) ;
#204 = DIRECTION ( 'NONE',  ( 0.0000000000000000000, 1.000000000000000000, 0.0000000000000000000 ) ) ;
#205 = CALENDAR_DATE ( 2021, 29, 11 ) ;
#206 = EDGE_CURVE ( 'NONE', #127, #127, #87, .T. ) ;
#207 = VERTEX_POINT ( 'NONE', #81 ) ;
#208 = DIRECTION ( 'NONE',  ( 3.491481338843133355E-15, -1.224646799147352961E-16, 1.000000000000000000 ) ) ;
#209 = EDGE_CURVE ( 'NONE', #275, #275, #101, .T. ) ;
#210 = COORDINATED_UNIVERSAL_TIME_OFFSET ( 1, 0, .AHEAD. ) ;
#211 = ADVANCED_FACE ( 'NONE', ( #224, #180 ), #129, .T. ) ;
#212 = TOROIDAL_SURFACE ( 'NONE', #195, 2.600000000000000089, 2.000000000000000888 ) ;
#213 = PLANE ( 'NONE',  #150 ) ;
#214 = CARTESIAN_POINT ( 'NONE',  ( -1.604488641464333869E-31, 5.627788575518039148E-33, -4.595438112798176212E-17 ) ) ;
#215 = ORIENTED_EDGE ( 'NONE', *, *, #209, .F. ) ;
#216 = FACE_OUTER_BOUND ( 'NONE', #75, .T. ) ;
#217 = AXIS2_PLACEMENT_3D ( 'NONE', #149, #8, #225 ) ;
#218 = CARTESIAN_POINT ( 'NONE',  ( 0.0000000000000000000, 0.0000000000000000000, 0.0000000000000000000 ) ) ;
#219 = EDGE_LOOP ( 'NONE', ( #215 ) ) ;
#220 = CARTESIAN_POINT ( 'NONE',  ( 2.139337362889160084E-14, 0.5999999999999980904, 6.127305734356316869 ) ) ;
#221 = VERTEX_POINT ( 'NONE', #201 ) ;
#222 = ORIENTED_EDGE ( 'NONE', *, *, #12, .T. ) ;
#223 = PERSON_AND_ORGANIZATION ( #250, #302 ) ;
#224 = FACE_OUTER_BOUND ( 'NONE', #105, .T. ) ;
#225 = DIRECTION ( 'NONE',  ( -4.275831445896957731E-31, -1.000000000000000000, -1.224646799147352961E-16 ) ) ;
#226 = CIRCLE ( 'NONE', #286, 0.5999999999999988676 ) ;
#227 = FACE_BOUND ( 'NONE', #144, .T. ) ;
#228 = EDGE_CURVE ( 'NONE', #221, #221, #297, .T. ) ;
#229 = CIRCLE ( 'NONE', #111, 1.499999999999997558 ) ;
#230 = ADVANCED_FACE ( 'NONE', ( #133 ), #292, .F. ) ;
#231 = EDGE_LOOP ( 'NONE', ( #139 ) ) ;
#232 = DIRECTION ( 'NONE',  ( -4.275831445896957731E-31, -1.000000000000000000, -1.224646799147352961E-16 ) ) ;
#233 = ORIENTED_EDGE ( 'NONE', *, *, #99, .F. ) ;
#234 = EDGE_LOOP ( 'NONE', ( #90 ) ) ;
#235 = ORIENTED_EDGE ( 'NONE', *, *, #263, .F. ) ;
#236 = CYLINDRICAL_SURFACE ( 'NONE', #69, 0.6734999999999994325 ) ;
#237 = AXIS2_PLACEMENT_3D ( 'NONE', #272, #73, #104 ) ;
#238 = DIRECTION ( 'NONE',  ( 4.275831445896957731E-31, 1.000000000000000000, 1.224646799147352961E-16 ) ) ;
#239 = DATE_AND_TIME ( #130, #46 ) ;
#240 = FACE_OUTER_BOUND ( 'NONE', #67, .T. ) ;
#241 = DIRECTION ( 'NONE',  ( 4.275831445896957731E-31, 1.000000000000000000, 1.224646799147353207E-16 ) ) ;
#242 = DESIGN_CONTEXT ( 'detailed design', #124, 'design' ) ;
#243 = CC_DESIGN_APPROVAL ( #109, ( #17 ) ) ;
#244 = CARTESIAN_POINT ( 'NONE',  ( 0.0000000000000000000, 0.0000000000000000000, 0.0000000000000000000 ) ) ;
#245 = DIRECTION ( 'NONE',  ( 0.0000000000000000000, 1.000000000000000000, 0.0000000000000000000 ) ) ;
#246 = APPLICATION_PROTOCOL_DEFINITION ( 'international standard', 'config_control_design', 1994, #58 ) ;
#247 = CARTESIAN_POINT ( 'NONE',  ( 1.316288464743861212E-13, -4.616918432785520292E-15, 37.69999999999999574 ) ) ;
#248 = AXIS2_PLACEMENT_3D ( 'NONE', #194, #261, #169 ) ;
#249 = CARTESIAN_POINT ( 'NONE',  ( 4.538925740496073993E-14, 0.5999999999999980904, 13.00000000000000178 ) ) ;
#250 = PERSON ( 'UNSPECIFIED', 'UNSPECIFIED', 'UNSPECIFIED', ('UNSPECIFIED'), ('UNSPECIFIED'), ('UNSPECIFIED') ) ;
#251 = ADVANCED_FACE ( 'NONE', ( #198, #158 ), #177, .T. ) ;
#252 = DATE_AND_TIME ( #160, #153 ) ;
#253 = ADVANCED_FACE ( 'NONE', ( #288, #227 ), #59, .T. ) ;
#254 = EDGE_LOOP ( 'NONE', ( #11 ) ) ;
#255 = CARTESIAN_POINT ( 'NONE',  ( 4.538925740496073362E-14, -1.734723475976807094E-15, 13.00000000000000000 ) ) ;
#256 = CONICAL_SURFACE ( 'NONE', #126, 1.499999999999997558, 0.1745329251994262310 ) ;
#257 = EDGE_LOOP ( 'NONE', ( #188 ) ) ;
#258 = ADVANCED_FACE ( 'NONE', ( #77, #123 ), #78, .T. ) ;
#259 = CARTESIAN_POINT ( 'NONE',  ( 6.382124465354759705E-14, -2.238547922712489189E-15, 18.27913096470797782 ) ) ;
#260 = EDGE_LOOP ( 'NONE', ( #65 ) ) ;
#261 = DIRECTION ( 'NONE',  ( -3.491481338843133355E-15, 1.224646799147352961E-16, -1.000000000000000000 ) ) ;
#262 = CARTESIAN_POINT ( 'NONE',  ( 0.0000000000000000000, 0.0000000000000000000, 0.0000000000000000000 ) ) ;
#263 = EDGE_CURVE ( 'NONE', #175, #175, #197, .T. ) ;
#264 =( GEOMETRIC_REPRESENTATION_CONTEXT ( 3 ) GLOBAL_UNCERTAINTY_ASSIGNED_CONTEXT ( ( #53 ) ) GLOBAL_UNIT_ASSIGNED_CONTEXT ( ( #156, #9, #294 ) ) REPRESENTATION_CONTEXT ( 'NONE', 'WORKASPACE' ) );
#265 = PERSON_AND_ORGANIZATION ( #250, #302 ) ;
#266 = CARTESIAN_POINT ( 'NONE',  ( 2.139337362889160084E-14, -7.503785354976684277E-16, 6.127305734356316869 ) ) ;
#267 = CARTESIAN_POINT ( 'NONE',  ( 8.728703347107831416E-16, -3.061616997868381785E-17, 0.2499999999999999445 ) ) ;
#268 = CARTESIAN_POINT ( 'NONE',  ( 8.728703347107833388E-16, 0.6734999999999990994, 0.2500000000000000555 ) ) ;
#269 = AXIS2_PLACEMENT_3D ( 'NONE', #262, #192, #193 ) ;
#270 = PERSON_AND_ORGANIZATION_ROLE ( 'creator' ) ;
#271 = AXIS2_PLACEMENT_3D ( 'NONE', #178, #80, #110 ) ;
#272 = CARTESIAN_POINT ( 'NONE',  ( 1.326762908760390423E-13, -4.653657836759941152E-15, 38.00000000000000000 ) ) ;
#273 = DATE_AND_TIME ( #205, #128 ) ;
#274 = SECURITY_CLASSIFICATION_LEVEL ( 'unclassified' ) ;
#275 = VERTEX_POINT ( 'NONE', #33 ) ;
#276 = APPROVAL ( #56, 'UNSPECIFIED' ) ;
#277 = PRODUCT ( '326971', '326971', '', ( #15 ) ) ;
#278 = CC_DESIGN_APPROVAL ( #44, ( #152 ) ) ;
#279 = FACE_OUTER_BOUND ( 'NONE', #234, .T. ) ;
#280 = CIRCLE ( 'NONE', #49, 0.5291624327025946650 ) ;
#281 = DIRECTION ( 'NONE',  ( 3.491481338843133355E-15, -1.224646799147352961E-16, 1.000000000000000000 ) ) ;
#282 = LOCAL_TIME ( 15, 58, 40.00000000000000000, #210 ) ;
#283 = CARTESIAN_POINT ( 'NONE',  ( 2.094888803305880013E-14, -7.347880794884118750E-16, 6.000000000000000000 ) ) ;
#284 = CARTESIAN_POINT ( 'NONE',  ( 1.326762908760390423E-13, 8.998558695971099120E-33, 38.00000000000000000 ) ) ;
#285 = DIRECTION ( 'NONE',  ( -3.491481338843133355E-15, 1.224646799147352961E-16, -1.000000000000000000 ) ) ;
#286 = AXIS2_PLACEMENT_3D ( 'NONE', #266, #117, #32 ) ;
#287 = APPROVAL_STATUS ( 'not_yet_approved' ) ;
#288 = FACE_OUTER_BOUND ( 'NONE', #219, .T. ) ;
#289 = CARTESIAN_POINT ( 'NONE',  ( 2.094888803305880013E-14, 0.6734999999999990994, 6.000000000000000000 ) ) ;
#290 = EDGE_LOOP ( 'NONE', ( #202 ) ) ;
#291 = EDGE_CURVE ( 'NONE', #54, #54, #136, .T. ) ;
#292 = PLANE ( 'NONE',  #217 ) ;
#293 = VERTEX_POINT ( 'NONE', #220 ) ;
#294 =( NAMED_UNIT ( * ) SI_UNIT ( $, .STERADIAN. ) SOLID_ANGLE_UNIT ( ) );
#295 = DIRECTION ( 'NONE',  ( -3.491481338843133355E-15, 1.224646799147352961E-16, -1.000000000000000000 ) ) ;
#296 = CC_DESIGN_DATE_AND_TIME_ASSIGNMENT ( #239, #100, ( #152 ) ) ;
#297 = CIRCLE ( 'NONE', #41, 0.6303844939755796073 ) ;
#298 = PERSON_AND_ORGANIZATION ( #250, #302 ) ;
#299 = APPROVAL_PERSON_ORGANIZATION ( #61, #276, #137 ) ;
#300 = PERSON_AND_ORGANIZATION_ROLE ( 'design_supplier' ) ;
#301 = ORIENTED_EDGE ( 'NONE', *, *, #206, .T. ) ;
#302 = ORGANIZATION ( 'UNSPECIFIED', 'UNSPECIFIED', '' ) ;
#303 = EDGE_LOOP ( 'NONE', ( #167 ) ) ;
ENDSEC;
END-ISO-10303-21;
