ISO-10303-21;
HEADER;
FILE_DESCRIPTION (( 'STEP AP203' ),
    '1' );
FILE_NAME ('326970.step',
    '2021-11-26T14:47:24',
    ( '' ),
    ( '' ),
    'SwSTEP 2.0',
    'SolidWorks 2019',
    '' );
FILE_SCHEMA (( 'CONFIG_CONTROL_DESIGN' ));
ENDSEC;

DATA;
#1 = ADVANCED_FACE ( 'NONE', ( #227, #269 ), #247, .T. ) ;
#2 = CYLINDRICAL_SURFACE ( 'NONE', #142, 0.2884999999999991460 ) ;
#3 = FACE_OUTER_BOUND ( 'NONE', #35, .T. ) ;
#4 = PERSON_AND_ORGANIZATION ( #267, #90 ) ;
#5 = AXIS2_PLACEMENT_3D ( 'NONE', #164, #171, #55 ) ;
#6 = APPROVAL_DATE_TIME ( #68, #106 ) ;
#7 = CARTESIAN_POINT ( 'NONE',  ( 1.396592535537253342E-14, 2.163403486489716791E-33, 4.000000000000000000 ) ) ;
#8 = CONICAL_SURFACE ( 'NONE', #103, 1.200000000000003286, 0.7853981633974453924 ) ;
#9 = ADVANCED_FACE ( 'NONE', ( #11, #27 ), #232, .T. ) ;
#10 = DIRECTION ( 'NONE',  ( -4.275831445896957731E-31, -1.000000000000000000, -1.224646799147352961E-16 ) ) ;
#11 = FACE_OUTER_BOUND ( 'NONE', #255, .T. ) ;
#12 = CARTESIAN_POINT ( 'NONE',  ( 2.216146677675516400E-14, 0.3188844939755801078, 6.347296355333847728 ) ) ;
#13 = DIRECTION ( 'NONE',  ( 3.491481338843133355E-15, -1.224646799147352961E-16, 1.000000000000000000 ) ) ;
#14 = DIRECTION ( 'NONE',  ( -3.491481338843133355E-15, 1.224646799147352961E-16, -1.000000000000000000 ) ) ;
#15 = EDGE_LOOP ( 'NONE', ( #197 ) ) ;
#16 = ADVANCED_FACE ( 'NONE', ( #167 ), #145, .F. ) ;
#17 = EDGE_LOOP ( 'NONE', ( #243 ) ) ;
#18 = APPROVAL_STATUS ( 'not_yet_approved' ) ;
#19 = EDGE_LOOP ( 'NONE', ( #278 ) ) ;
#20 = CC_DESIGN_DATE_AND_TIME_ASSIGNMENT ( #203, #72, ( #45 ) ) ;
#21 = AXIS2_PLACEMENT_3D ( 'NONE', #259, #211, #250 ) ;
#22 = ADVANCED_FACE ( 'NONE', ( #77, #169 ), #254, .T. ) ;
#23 = CARTESIAN_POINT ( 'NONE',  ( 1.396592535537253342E-14, -4.898587196589411843E-16, 4.000000000000000000 ) ) ;
#24 = DIRECTION ( 'NONE',  ( 4.275831445896957731E-31, 1.000000000000000000, 1.224646799147353207E-16 ) ) ;
#25 = ADVANCED_FACE ( 'NONE', ( #240, #238 ), #8, .T. ) ;
#26 = FACE_OUTER_BOUND ( 'NONE', #134, .T. ) ;
#27 = FACE_OUTER_BOUND ( 'NONE', #219, .T. ) ;
#28 = AXIS2_PLACEMENT_3D ( 'NONE', #210, #207, #93 ) ;
#29 = CARTESIAN_POINT ( 'NONE',  ( 1.326762908760390423E-13, -4.653657836759941152E-15, 38.00000000000000000 ) ) ;
#30 = DIRECTION ( 'NONE',  ( 0.0000000000000000000, 1.000000000000000000, 0.0000000000000000000 ) ) ;
#31 = VERTEX_POINT ( 'NONE', #188 ) ;
#32 = CC_DESIGN_DATE_AND_TIME_ASSIGNMENT ( #281, #59, ( #218 ) ) ;
#33 = DATE_AND_TIME ( #153, #172 ) ;
#34 = CIRCLE ( 'NONE', #109, 0.2884999999999993681 ) ;
#35 = EDGE_LOOP ( 'NONE', ( #61 ) ) ;
#36 = CARTESIAN_POINT ( 'NONE',  ( 1.326762908760390423E-13, -4.653657836759941152E-15, 38.00000000000000000 ) ) ;
#37 = ORIENTED_EDGE ( 'NONE', *, *, #230, .T. ) ;
#38 = PERSON_AND_ORGANIZATION ( #267, #90 ) ;
#39 = LOCAL_TIME ( 15, 47, 24.00000000000000000, #252 ) ;
#40 = AXIS2_PLACEMENT_3D ( 'NONE', #225, #260, #24 ) ;
#41 = EDGE_LOOP ( 'NONE', ( #85 ) ) ;
#42 = CARTESIAN_POINT ( 'NONE',  ( -1.933080041703044697E-31, 6.780332059147305858E-33, -5.536561287603934539E-17 ) ) ;
#43 = EDGE_LOOP ( 'NONE', ( #239 ) ) ;
#44 = APPROVAL_ROLE ( '' ) ;
#45 = SECURITY_CLASSIFICATION ( '', '', #144 ) ;
#46 = AXIS2_PLACEMENT_3D ( 'NONE', #280, #264, #156 ) ;
#47 = DIRECTION ( 'NONE',  ( -3.491481338843133355E-15, 1.224646799147352961E-16, -1.000000000000000000 ) ) ;
#48 = CC_DESIGN_PERSON_AND_ORGANIZATION_ASSIGNMENT ( #4, #147, ( #45 ) ) ;
#49 = CIRCLE ( 'NONE', #112, 1.200000000000003286 ) ;
#50 = DIRECTION ( 'NONE',  ( 3.491481338843133355E-15, -1.224646799147352961E-16, 1.000000000000000000 ) ) ;
#51 = DIRECTION ( 'NONE',  ( 0.0000000000000000000, -1.000000000000000000, 0.0000000000000000000 ) ) ;
#52 = DIRECTION ( 'NONE',  ( 3.491481338843133355E-15, -1.224646799147352961E-16, 1.000000000000000000 ) ) ;
#53 = CARTESIAN_POINT ( 'NONE',  ( 0.0000000000000000000, 0.0000000000000000000, 0.0000000000000000000 ) ) ;
#54 = PLANE ( 'NONE',  #88 ) ;
#55 = DIRECTION ( 'NONE',  ( -5.006750288701670335E-31, -1.000000000000000000, -1.409274920908372862E-16 ) ) ;
#56 = PRODUCT_DEFINITION_SHAPE ( 'NONE', 'NONE',  #218 ) ;
#57 = DIRECTION ( 'NONE',  ( 0.0000000000000000000, 1.000000000000000000, 0.0000000000000000000 ) ) ;
#58 = ADVANCED_FACE ( 'NONE', ( #173 ), #129, .F. ) ;
#59 = DATE_TIME_ROLE ( 'creation_date' ) ;
#60 = AXIS2_PLACEMENT_3D ( 'NONE', #189, #150, #165 ) ;
#61 = ORIENTED_EDGE ( 'NONE', *, *, #217, .F. ) ;
#62 = PERSON_AND_ORGANIZATION ( #267, #90 ) ;
#63 = EDGE_CURVE ( 'NONE', #92, #92, #277, .T. ) ;
#64 = ORIENTED_EDGE ( 'NONE', *, *, #122, .T. ) ;
#65 = ADVANCED_FACE ( 'NONE', ( #126, #138 ), #2, .T. ) ;
#66 = PERSON_AND_ORGANIZATION ( #267, #90 ) ;
#67 = VERTEX_POINT ( 'NONE', #12 ) ;
#68 = DATE_AND_TIME ( #140, #39 ) ;
#69 = AXIS2_PLACEMENT_3D ( 'NONE', #198, #135, #132 ) ;
#70 = CIRCLE ( 'NONE', #223, 1.499999999999996891 ) ;
#71 = DIRECTION ( 'NONE',  ( -4.275831445896957731E-31, -1.000000000000000000, -1.224646799147352961E-16 ) ) ;
#72 = DATE_TIME_ROLE ( 'classification_date' ) ;
#73 = DIRECTION ( 'NONE',  ( 0.0000000000000000000, 1.000000000000000000, 0.0000000000000000000 ) ) ;
#74 = ORIENTED_EDGE ( 'NONE', *, *, #87, .F. ) ;
#75 = AXIS2_PLACEMENT_3D ( 'NONE', #53, #98, #191 ) ;
#76 = VERTEX_POINT ( 'NONE', #94 ) ;
#77 = FACE_OUTER_BOUND ( 'NONE', #136, .T. ) ;
#78 = ADVANCED_FACE ( 'NONE', ( #3, #86 ), #221, .F. ) ;
#79 = ORIENTED_EDGE ( 'NONE', *, *, #199, .F. ) ;
#80 = APPROVAL_ROLE ( '' ) ;
#81 = EDGE_LOOP ( 'NONE', ( #117 ) ) ;
#82 = EDGE_CURVE ( 'NONE', #206, #206, #149, .T. ) ;
#83 = PERSON_AND_ORGANIZATION ( #267, #90 ) ;
#84 = CONICAL_SURFACE ( 'NONE', #192, 1.499999999999996891, 0.1745329251994260367 ) ;
#85 = ORIENTED_EDGE ( 'NONE', *, *, #87, .T. ) ;
#86 = FACE_OUTER_BOUND ( 'NONE', #17, .T. ) ;
#87 = EDGE_CURVE ( 'NONE', #31, #31, #49, .T. ) ;
#88 = AXIS2_PLACEMENT_3D ( 'NONE', #170, #13, #10 ) ;
#89 = VERTEX_POINT ( 'NONE', #276 ) ;
#90 = ORGANIZATION ( 'UNSPECIFIED', 'UNSPECIFIED', '' ) ;
#91 = CIRCLE ( 'NONE', #60, 0.3188844939755808849 ) ;
#92 = VERTEX_POINT ( 'NONE', #208 ) ;
#93 = DIRECTION ( 'NONE',  ( -4.275831445896957731E-31, -1.000000000000000000, -1.224646799147352961E-16 ) ) ;
#94 = CARTESIAN_POINT ( 'NONE',  ( 1.396592535537253342E-14, 0.2884999999999988685, 4.000000000000000000 ) ) ;
#95 = CC_DESIGN_PERSON_AND_ORGANIZATION_ASSIGNMENT ( #83, #157, ( #158 ) ) ;
#96 = PRODUCT ( '326970', '326970', '', ( #279 ) ) ;
#97 = DIRECTION ( 'NONE',  ( 4.399675654376657593E-31, 1.000000000000000000, 1.224646799147352961E-16 ) ) ;
#98 = DIRECTION ( 'NONE',  ( -3.491481338843133355E-15, 1.224646799147352961E-16, -1.000000000000000000 ) ) ;
#99 = VERTEX_POINT ( 'NONE', #193 ) ;
#100 = DIRECTION ( 'NONE',  ( -3.491481338843133355E-15, 1.224646799147352961E-16, -1.000000000000000000 ) ) ;
#101 = DIRECTION ( 'NONE',  ( 0.0000000000000000000, 1.000000000000000000, 0.0000000000000000000 ) ) ;
#102 = DESIGN_CONTEXT ( 'detailed design', #130, 'design' ) ;
#103 = AXIS2_PLACEMENT_3D ( 'NONE', #36, #178, #101 ) ;
#104 = EDGE_LOOP ( 'NONE', ( #64 ) ) ;
#105 = COORDINATED_UNIVERSAL_TIME_OFFSET ( 1, 0, .AHEAD. ) ;
#106 = APPROVAL ( #161, 'UNSPECIFIED' ) ;
#107 = PERSON_AND_ORGANIZATION_ROLE ( 'design_owner' ) ;
#108 = ORIENTED_EDGE ( 'NONE', *, *, #195, .F. ) ;
#109 = AXIS2_PLACEMENT_3D ( 'NONE', #23, #162, #73 ) ;
#110 = CARTESIAN_POINT ( 'NONE',  ( 0.0000000000000000000, 0.0000000000000000000, 0.0000000000000000000 ) ) ;
#111 = EDGE_LOOP ( 'NONE', ( #74 ) ) ;
#112 = AXIS2_PLACEMENT_3D ( 'NONE', #29, #14, #229 ) ;
#113 = CARTESIAN_POINT ( 'NONE',  ( 4.554894118216648059E-14, -1.597641791829648225E-15, 13.04573525151896085 ) ) ;
#114 = PLANE ( 'NONE',  #187 ) ;
#115 = ORIENTED_EDGE ( 'NONE', *, *, #246, .T. ) ;
#116 = APPROVAL_PERSON_ORGANIZATION ( #216, #176, #80 ) ;
#117 = ORIENTED_EDGE ( 'NONE', *, *, #199, .T. ) ;
#118 = AXIS2_PLACEMENT_3D ( 'NONE', #42, #100, #235 ) ;
#119 = FACE_OUTER_BOUND ( 'NONE', #204, .T. ) ;
#120 = VERTEX_POINT ( 'NONE', #253 ) ;
#121 =( NAMED_UNIT ( * ) PLANE_ANGLE_UNIT ( ) SI_UNIT ( $, .RADIAN. ) );
#122 = EDGE_CURVE ( 'NONE', #99, #99, #155, .T. ) ;
#123 = CC_DESIGN_APPROVAL ( #176, ( #218 ) ) ;
#124 = AXIS2_PLACEMENT_3D ( 'NONE', #186, #258, #190 ) ;
#125 = APPROVAL_DATE_TIME ( #33, #176 ) ;
#126 = FACE_OUTER_BOUND ( 'NONE', #215, .T. ) ;
#127 = ORIENTED_EDGE ( 'NONE', *, *, #246, .F. ) ;
#128 = PERSON_AND_ORGANIZATION ( #267, #90 ) ;
#129 = PLANE ( 'NONE',  #46 ) ;
#130 = APPLICATION_CONTEXT ( 'configuration controlled 3d designs of mechanical parts and assemblies' ) ;
#131 = EDGE_LOOP ( 'NONE', ( #108 ) ) ;
#132 = DIRECTION ( 'NONE',  ( 1.000000000000000000, 0.0000000000000000000, 0.0000000000000000000 ) ) ;
#133 = AXIS2_PLACEMENT_3D ( 'NONE', #266, #47, #97 ) ;
#134 = EDGE_LOOP ( 'NONE', ( #222 ) ) ;
#135 = DIRECTION ( 'NONE',  ( 0.0000000000000000000, 0.0000000000000000000, 1.000000000000000000 ) ) ;
#136 = EDGE_LOOP ( 'NONE', ( #127 ) ) ;
#137 = APPROVAL_DATE_TIME ( #179, #152 ) ;
#138 = FACE_OUTER_BOUND ( 'NONE', #104, .T. ) ;
#139 = PRODUCT_RELATED_PRODUCT_CATEGORY ( 'detail', '', ( #96 ) ) ;
#140 = CALENDAR_DATE ( 2021, 26, 11 ) ;
#141 = ADVANCED_FACE ( 'NONE', ( #231, #251 ), #84, .T. ) ;
#142 = AXIS2_PLACEMENT_3D ( 'NONE', #110, #202, #248 ) ;
#143 = DIRECTION ( 'NONE',  ( 5.006750288701670335E-31, 1.000000000000000000, 1.409274920908372862E-16 ) ) ;
#144 = SECURITY_CLASSIFICATION_LEVEL ( 'unclassified' ) ;
#145 = PLANE ( 'NONE',  #28 ) ;
#146 = CARTESIAN_POINT ( 'NONE',  ( 3.491481338843133355E-16, 0.2884999999999989795, 0.09999999999999999167 ) ) ;
#147 = PERSON_AND_ORGANIZATION_ROLE ( 'classification_officer' ) ;
#148 = EDGE_LOOP ( 'NONE', ( #154 ) ) ;
#149 = CIRCLE ( 'NONE', #242, 0.2884999999999989795 ) ;
#150 = DIRECTION ( 'NONE',  ( -3.491481338843133355E-15, 1.224646799147352961E-16, -1.000000000000000000 ) ) ;
#151 = DIRECTION ( 'NONE',  ( -3.491481338843133355E-15, 1.224646799147352961E-16, -1.000000000000000000 ) ) ;
#152 = APPROVAL ( #18, 'UNSPECIFIED' ) ;
#153 = CALENDAR_DATE ( 2021, 26, 11 ) ;
#154 = ORIENTED_EDGE ( 'NONE', *, *, #63, .T. ) ;
#155 = CIRCLE ( 'NONE', #21, 0.2884999999999993681 ) ;
#156 = DIRECTION ( 'NONE',  ( 4.275831445896957731E-31, 1.000000000000000000, 1.224646799147352961E-16 ) ) ;
#157 = PERSON_AND_ORGANIZATION_ROLE ( 'design_supplier' ) ;
#158 = PRODUCT_DEFINITION_FORMATION_WITH_SPECIFIED_SOURCE ( 'ANY', '', #96, .NOT_KNOWN. ) ;
#159 = ADVANCED_BREP_SHAPE_REPRESENTATION ( '326970', ( #271, #180, #69 ), #228 ) ;
#160 = CC_DESIGN_PERSON_AND_ORGANIZATION_ASSIGNMENT ( #282, #220, ( #158 ) ) ;
#161 = APPROVAL_STATUS ( 'not_yet_approved' ) ;
#162 = DIRECTION ( 'NONE',  ( -3.491481338843133355E-15, 1.224646799147352961E-16, -1.000000000000000000 ) ) ;
#163 = AXIS2_PLACEMENT_3D ( 'NONE', #270, #205, #30 ) ;
#164 = CARTESIAN_POINT ( 'NONE',  ( 3.491481338843131876E-16, -1.224646799147352344E-17, 0.09999999999999995004 ) ) ;
#165 = DIRECTION ( 'NONE',  ( 0.0000000000000000000, 1.000000000000000000, 0.0000000000000000000 ) ) ;
#166 = APPROVAL_ROLE ( '' ) ;
#167 = FACE_OUTER_BOUND ( 'NONE', #148, .T. ) ;
#168 = CARTESIAN_POINT ( 'NONE',  ( 2.094888803305880013E-14, 0.2884999999999988129, 6.000000000000000000 ) ) ;
#169 = FACE_OUTER_BOUND ( 'NONE', #43, .T. ) ;
#170 = CARTESIAN_POINT ( 'NONE',  ( 1.396592535537253342E-14, 2.163403486489716791E-33, 4.000000000000000000 ) ) ;
#171 = DIRECTION ( 'NONE',  ( 3.491481338843133355E-15, -1.224646799147352961E-16, 1.000000000000000000 ) ) ;
#172 = LOCAL_TIME ( 15, 47, 24.00000000000000000, #263 ) ;
#173 = FACE_OUTER_BOUND ( 'NONE', #111, .T. ) ;
#174 =( NAMED_UNIT ( * ) SI_UNIT ( $, .STERADIAN. ) SOLID_ANGLE_UNIT ( ) );
#175 = CLOSED_SHELL ( 'NONE', ( #16, #1, #65, #261 ) ) ;
#176 = APPROVAL ( #233, 'UNSPECIFIED' ) ;
#177 = ORIENTED_EDGE ( 'NONE', *, *, #230, .F. ) ;
#178 = DIRECTION ( 'NONE',  ( -3.491481338843133355E-15, 1.224646799147352961E-16, -1.000000000000000000 ) ) ;
#179 = DATE_AND_TIME ( #200, #245 ) ;
#180 = MANIFOLD_SOLID_BREP ( 'Corps-Déplacer/Copier1[2]', #175 ) ;
#181 = CARTESIAN_POINT ( 'NONE',  ( 3.491481338843131876E-16, -1.224646799147352344E-17, 0.09999999999999995004 ) ) ;
#182 = CC_DESIGN_APPROVAL ( #152, ( #158 ) ) ;
#183 = CALENDAR_DATE ( 2021, 26, 11 ) ;
#184 = COORDINATED_UNIVERSAL_TIME_OFFSET ( 1, 0, .AHEAD. ) ;
#185 = ADVANCED_FACE ( 'NONE', ( #119 ), #54, .F. ) ;
#186 = CARTESIAN_POINT ( 'NONE',  ( 2.094888803305880013E-14, -7.347880794884118750E-16, 6.000000000000000000 ) ) ;
#187 = AXIS2_PLACEMENT_3D ( 'NONE', #7, #50, #71 ) ;
#188 = CARTESIAN_POINT ( 'NONE',  ( 1.326762908760390423E-13, 1.199999999999998845, 38.00000000000000000 ) ) ;
#189 = CARTESIAN_POINT ( 'NONE',  ( 2.216146677675516400E-14, -7.773196164799256863E-16, 6.347296355333847728 ) ) ;
#190 = DIRECTION ( 'NONE',  ( 0.0000000000000000000, 1.000000000000000000, 0.0000000000000000000 ) ) ;
#191 = DIRECTION ( 'NONE',  ( 4.275831445896957731E-31, 1.000000000000000000, 1.224646799147352961E-16 ) ) ;
#192 = AXIS2_PLACEMENT_3D ( 'NONE', #224, #52, #51 ) ;
#193 = CARTESIAN_POINT ( 'NONE',  ( 1.396592535537253342E-14, 0.2884999999999988685, 4.000000000000000000 ) ) ;
#194 = PERSON_AND_ORGANIZATION_ROLE ( 'creator' ) ;
#195 = EDGE_CURVE ( 'NONE', #67, #67, #91, .T. ) ;
#196 = APPLICATION_PROTOCOL_DEFINITION ( 'international standard', 'config_control_design', 1994, #130 ) ;
#197 = ORIENTED_EDGE ( 'NONE', *, *, #63, .F. ) ;
#198 = CARTESIAN_POINT ( 'NONE',  ( 0.0000000000000000000, 0.0000000000000000000, 0.0000000000000000000 ) ) ;
#199 = EDGE_CURVE ( 'NONE', #89, #89, #70, .T. ) ;
#200 = CALENDAR_DATE ( 2021, 26, 11 ) ;
#201 = APPROVAL_PERSON_ORGANIZATION ( #66, #106, #166 ) ;
#202 = DIRECTION ( 'NONE',  ( -3.491481338843133355E-15, 1.224646799147352961E-16, -1.000000000000000000 ) ) ;
#203 = DATE_AND_TIME ( #183, #275 ) ;
#204 = EDGE_LOOP ( 'NONE', ( #115 ) ) ;
#205 = DIRECTION ( 'NONE',  ( -3.491481338843133355E-15, 1.224646799147352961E-16, -1.000000000000000000 ) ) ;
#206 = VERTEX_POINT ( 'NONE', #146 ) ;
#207 = DIRECTION ( 'NONE',  ( 3.491481338843133355E-15, -1.224646799147352961E-16, 1.000000000000000000 ) ) ;
#208 = CARTESIAN_POINT ( 'NONE',  ( -9.463679131915804593E-32, 0.2307649730810373001, -2.710505431213760469E-17 ) ) ;
#209 =( LENGTH_UNIT ( ) NAMED_UNIT ( * ) SI_UNIT ( .MILLI., .METRE. ) );
#210 = CARTESIAN_POINT ( 'NONE',  ( -9.665400208515223487E-32, 3.390166029573652929E-33, -2.768280643801967270E-17 ) ) ;
#211 = DIRECTION ( 'NONE',  ( -3.491481338843133355E-15, 1.224646799147352961E-16, -1.000000000000000000 ) ) ;
#212 = APPLICATION_CONTEXT ( 'configuration controlled 3d designs of mechanical parts and assemblies' ) ;
#213 = LOCAL_TIME ( 15, 47, 24.00000000000000000, #105 ) ;
#214 = EDGE_LOOP ( 'NONE', ( #177 ) ) ;
#215 = EDGE_LOOP ( 'NONE', ( #273 ) ) ;
#216 = PERSON_AND_ORGANIZATION ( #267, #90 ) ;
#217 = EDGE_CURVE ( 'NONE', #272, #272, #249, .T. ) ;
#218 = PRODUCT_DEFINITION ( 'UNKNOWN', '', #158, #102 ) ;
#219 = EDGE_LOOP ( 'NONE', ( #37 ) ) ;
#220 = PERSON_AND_ORGANIZATION_ROLE ( 'creator' ) ;
#221 = TOROIDAL_SURFACE ( 'NONE', #133, 2.288499999999999535, 2.000000000000000000 ) ;
#222 = ORIENTED_EDGE ( 'NONE', *, *, #122, .F. ) ;
#223 = AXIS2_PLACEMENT_3D ( 'NONE', #113, #226, #57 ) ;
#224 = CARTESIAN_POINT ( 'NONE',  ( 4.554894118216648059E-14, -1.597641791829648225E-15, 13.04573525151896085 ) ) ;
#225 = CARTESIAN_POINT ( 'NONE',  ( 0.0000000000000000000, 0.0000000000000000000, 0.0000000000000000000 ) ) ;
#226 = DIRECTION ( 'NONE',  ( -3.491481338843133355E-15, 1.224646799147352961E-16, -1.000000000000000000 ) ) ;
#227 = FACE_BOUND ( 'NONE', #15, .T. ) ;
#228 =( GEOMETRIC_REPRESENTATION_CONTEXT ( 3 ) GLOBAL_UNCERTAINTY_ASSIGNED_CONTEXT ( ( #262 ) ) GLOBAL_UNIT_ASSIGNED_CONTEXT ( ( #209, #121, #174 ) ) REPRESENTATION_CONTEXT ( 'NONE', 'WORKASPACE' ) );
#229 = DIRECTION ( 'NONE',  ( 0.0000000000000000000, 1.000000000000000000, 0.0000000000000000000 ) ) ;
#230 = EDGE_CURVE ( 'NONE', #120, #120, #283, .T. ) ;
#231 = FACE_BOUND ( 'NONE', #131, .T. ) ;
#232 = CYLINDRICAL_SURFACE ( 'NONE', #40, 1.500000000000000000 ) ;
#233 = APPROVAL_STATUS ( 'not_yet_approved' ) ;
#234 = APPROVAL_PERSON_ORGANIZATION ( #62, #152, #44 ) ;
#235 = DIRECTION ( 'NONE',  ( 4.275831445896957731E-31, 1.000000000000000000, 1.224646799147352961E-16 ) ) ;
#236 = CLOSED_SHELL ( 'NONE', ( #185, #22, #78, #141, #9, #25, #58 ) ) ;
#237 = APPLICATION_PROTOCOL_DEFINITION ( 'international standard', 'config_control_design', 1994, #212 ) ;
#238 = FACE_BOUND ( 'NONE', #41, .T. ) ;
#239 = ORIENTED_EDGE ( 'NONE', *, *, #217, .T. ) ;
#240 = FACE_OUTER_BOUND ( 'NONE', #214, .T. ) ;
#241 = CC_DESIGN_APPROVAL ( #106, ( #45 ) ) ;
#242 = AXIS2_PLACEMENT_3D ( 'NONE', #181, #151, #143 ) ;
#243 = ORIENTED_EDGE ( 'NONE', *, *, #195, .T. ) ;
#244 = COORDINATED_UNIVERSAL_TIME_OFFSET ( 1, 0, .AHEAD. ) ;
#245 = LOCAL_TIME ( 15, 47, 24.00000000000000000, #244 ) ;
#246 = EDGE_CURVE ( 'NONE', #76, #76, #34, .T. ) ;
#247 = CONICAL_SURFACE ( 'NONE', #5, 0.2884999999999989795, 0.5235987755982921543 ) ;
#248 = DIRECTION ( 'NONE',  ( 4.275831445896958607E-31, 1.000000000000000000, 1.224646799147352961E-16 ) ) ;
#249 = CIRCLE ( 'NONE', #124, 0.2884999999999995901 ) ;
#250 = DIRECTION ( 'NONE',  ( 0.0000000000000000000, 1.000000000000000000, 0.0000000000000000000 ) ) ;
#251 = FACE_OUTER_BOUND ( 'NONE', #81, .T. ) ;
#252 = COORDINATED_UNIVERSAL_TIME_OFFSET ( 1, 0, .AHEAD. ) ;
#253 = CARTESIAN_POINT ( 'NONE',  ( 1.316288464743861212E-13, 1.499999999999998668, 37.69999999999999574 ) ) ;
#254 = CYLINDRICAL_SURFACE ( 'NONE', #75, 0.2884999999999994791 ) ;
#255 = EDGE_LOOP ( 'NONE', ( #79 ) ) ;
#256 = CC_DESIGN_PERSON_AND_ORGANIZATION_ASSIGNMENT ( #38, #194, ( #218 ) ) ;
#257 = CC_DESIGN_SECURITY_CLASSIFICATION ( #45, ( #158 ) ) ;
#258 = DIRECTION ( 'NONE',  ( -3.491481338843133355E-15, 1.224646799147352961E-16, -1.000000000000000000 ) ) ;
#259 = CARTESIAN_POINT ( 'NONE',  ( 1.396592535537253342E-14, -4.898587196589411843E-16, 4.000000000000000000 ) ) ;
#260 = DIRECTION ( 'NONE',  ( -3.491481338843133355E-15, 1.224646799147352961E-16, -1.000000000000000000 ) ) ;
#261 = ADVANCED_FACE ( 'NONE', ( #26 ), #114, .T. ) ;
#262 = UNCERTAINTY_MEASURE_WITH_UNIT (LENGTH_MEASURE( 1.000000000000000082E-05 ), #209, 'distance_accuracy_value', 'NONE');
#263 = COORDINATED_UNIVERSAL_TIME_OFFSET ( 1, 0, .AHEAD. ) ;
#264 = DIRECTION ( 'NONE',  ( -3.491481338843133355E-15, 1.224646799147352961E-16, -1.000000000000000000 ) ) ;
#265 = CALENDAR_DATE ( 2021, 26, 11 ) ;
#266 = CARTESIAN_POINT ( 'NONE',  ( 2.094888803305880013E-14, -8.673617379884035472E-16, 6.000000000000000000 ) ) ;
#267 = PERSON ( 'UNSPECIFIED', 'UNSPECIFIED', 'UNSPECIFIED', ('UNSPECIFIED'), ('UNSPECIFIED'), ('UNSPECIFIED') ) ;
#268 = SHAPE_DEFINITION_REPRESENTATION ( #56, #159 ) ;
#269 = FACE_OUTER_BOUND ( 'NONE', #19, .T. ) ;
#270 = CARTESIAN_POINT ( 'NONE',  ( 1.316288464743861212E-13, -4.616918432785520292E-15, 37.69999999999999574 ) ) ;
#271 = MANIFOLD_SOLID_BREP ( 'Corps-Déplacer/Copier1[1]', #236 ) ;
#272 = VERTEX_POINT ( 'NONE', #168 ) ;
#273 = ORIENTED_EDGE ( 'NONE', *, *, #82, .F. ) ;
#274 = CC_DESIGN_PERSON_AND_ORGANIZATION_ASSIGNMENT ( #128, #107, ( #96 ) ) ;
#275 = LOCAL_TIME ( 15, 47, 24.00000000000000000, #184 ) ;
#276 = CARTESIAN_POINT ( 'NONE',  ( 4.554894118216648059E-14, 1.499999999999995559, 13.04573525151896085 ) ) ;
#277 = CIRCLE ( 'NONE', #118, 0.2307649730810373001 ) ;
#278 = ORIENTED_EDGE ( 'NONE', *, *, #82, .T. ) ;
#279 = MECHANICAL_CONTEXT ( 'NONE', #212, 'mechanical' ) ;
#280 = CARTESIAN_POINT ( 'NONE',  ( 1.326762908760390423E-13, 8.998558695971099120E-33, 38.00000000000000000 ) ) ;
#281 = DATE_AND_TIME ( #265, #213 ) ;
#282 = PERSON_AND_ORGANIZATION ( #267, #90 ) ;
#283 = CIRCLE ( 'NONE', #163, 1.500000000000003331 ) ;
ENDSEC;
END-ISO-10303-21;
