ISO-10303-21;
HEADER;
FILE_DESCRIPTION (( 'STEP AP203' ),
    '1' );
FILE_NAME ('326701.step',
    '2021-11-22T10:26:25',
    ( '' ),
    ( '' ),
    'SwSTEP 2.0',
    'SolidWorks 2019',
    '' );
FILE_SCHEMA (( 'CONFIG_CONTROL_DESIGN' ));
ENDSEC;

DATA;
#1 = AXIS2_PLACEMENT_3D ( 'NONE', #79, #40, #30 ) ;
#2 = ORIENTED_EDGE ( 'NONE', *, *, #199, .T. ) ;
#3 = DIRECTION ( 'NONE',  ( 4.275831445896958607E-31, 1.000000000000000000, 1.224646799147353207E-16 ) ) ;
#4 = ADVANCED_FACE ( 'NONE', ( #188 ), #62, .F. ) ;
#5 = APPLICATION_CONTEXT ( 'configuration controlled 3d designs of mechanical parts and assemblies' ) ;
#6 = APPLICATION_PROTOCOL_DEFINITION ( 'international standard', 'config_control_design', 1994, #5 ) ;
#7 = PERSON_AND_ORGANIZATION ( #19, #154 ) ;
#8 = EDGE_LOOP ( 'NONE', ( #2 ) ) ;
#9 = APPROVAL_STATUS ( 'not_yet_approved' ) ;
#10 = CC_DESIGN_PERSON_AND_ORGANIZATION_ASSIGNMENT ( #169, #86, ( #203 ) ) ;
#11 = APPROVAL_DATE_TIME ( #23, #118 ) ;
#12 = CALENDAR_DATE ( 2021, 22, 11 ) ;
#13 = LOCAL_TIME ( 11, 26, 25.00000000000000000, #142 ) ;
#14 = PRODUCT_DEFINITION ( 'UNKNOWN', '', #197, #38 ) ;
#15 = FACE_OUTER_BOUND ( 'NONE', #48, .T. ) ;
#16 = FACE_OUTER_BOUND ( 'NONE', #89, .T. ) ;
#17 = CARTESIAN_POINT ( 'NONE',  ( 8.617577878390877864E-15, -3.022639430366028945E-16, 2.468172400785686005 ) ) ;
#18 = APPROVAL_ROLE ( '' ) ;
#19 = PERSON ( 'UNSPECIFIED', 'UNSPECIFIED', 'UNSPECIFIED', ('UNSPECIFIED'), ('UNSPECIFIED'), ('UNSPECIFIED') ) ;
#20 = DATE_TIME_ROLE ( 'creation_date' ) ;
#21 = EDGE_CURVE ( 'NONE', #158, #158, #134, .T. ) ;
#22 = CALENDAR_DATE ( 2021, 22, 11 ) ;
#23 = DATE_AND_TIME ( #85, #77 ) ;
#24 = CC_DESIGN_APPROVAL ( #118, ( #14 ) ) ;
#25 = AXIS2_PLACEMENT_3D ( 'NONE', #180, #183, #43 ) ;
#26 = DIRECTION ( 'NONE',  ( -3.491481338843133355E-15, 1.224646799147353207E-16, -1.000000000000000000 ) ) ;
#27 = FACE_OUTER_BOUND ( 'NONE', #174, .T. ) ;
#28 = FACE_BOUND ( 'NONE', #175, .T. ) ;
#29 = CARTESIAN_POINT ( 'NONE',  ( 1.316288464743861212E-13, -4.616918432785521081E-15, 37.69999999999999574 ) ) ;
#30 = DIRECTION ( 'NONE',  ( 0.0000000000000000000, 1.000000000000000000, 0.0000000000000000000 ) ) ;
#31 = MECHANICAL_CONTEXT ( 'NONE', #196, 'mechanical' ) ;
#32 = CC_DESIGN_DATE_AND_TIME_ASSIGNMENT ( #195, #53, ( #170 ) ) ;
#33 = AXIS2_PLACEMENT_3D ( 'NONE', #153, #26, #3 ) ;
#34 = CIRCLE ( 'NONE', #54, 1.500000000000000000 ) ;
#35 = APPROVAL_ROLE ( '' ) ;
#36 = ADVANCED_FACE ( 'NONE', ( #28, #137 ), #147, .T. ) ;
#37 = ADVANCED_FACE ( 'NONE', ( #136 ), #61, .T. ) ;
#38 = DESIGN_CONTEXT ( 'detailed design', #5, 'design' ) ;
#39 = ORIENTED_EDGE ( 'NONE', *, *, #109, .F. ) ;
#40 = DIRECTION ( 'NONE',  ( -3.491481338843133355E-15, 1.224646799147353207E-16, -1.000000000000000000 ) ) ;
#41 = LOCAL_TIME ( 11, 26, 25.00000000000000000, #68 ) ;
#42 = VERTEX_POINT ( 'NONE', #106 ) ;
#43 = DIRECTION ( 'NONE',  ( 0.0000000000000000000, 1.000000000000000000, 0.0000000000000000000 ) ) ;
#44 = CARTESIAN_POINT ( 'NONE',  ( 8.617577878390877864E-15, -3.022639430366028945E-16, 2.468172400785686005 ) ) ;
#45 = DIRECTION ( 'NONE',  ( -4.275831445896958607E-31, -1.000000000000000000, -1.224646799147353207E-16 ) ) ;
#46 = VERTEX_POINT ( 'NONE', #92 ) ;
#47 = DATE_AND_TIME ( #187, #13 ) ;
#48 = EDGE_LOOP ( 'NONE', ( #198 ) ) ;
#49 = APPROVAL_PERSON_ORGANIZATION ( #191, #118, #35 ) ;
#50 = APPROVAL_STATUS ( 'not_yet_approved' ) ;
#51 = APPROVAL_DATE_TIME ( #100, #193 ) ;
#52 = ADVANCED_FACE ( 'NONE', ( #90, #157 ), #130, .T. ) ;
#53 = DATE_TIME_ROLE ( 'classification_date' ) ;
#54 = AXIS2_PLACEMENT_3D ( 'NONE', #44, #94, #140 ) ;
#55 = AXIS2_PLACEMENT_3D ( 'NONE', #17, #167, #139 ) ;
#56 = ORIENTED_EDGE ( 'NONE', *, *, #21, .F. ) ;
#57 = PLANE ( 'NONE',  #135 ) ;
#58 = CC_DESIGN_APPROVAL ( #193, ( #197 ) ) ;
#59 = DIRECTION ( 'NONE',  ( -4.275831445896958607E-31, -1.000000000000000000, -1.224646799147353207E-16 ) ) ;
#60 = AXIS2_PLACEMENT_3D ( 'NONE', #125, #152, #104 ) ;
#61 = PLANE ( 'NONE',  #161 ) ;
#62 = PLANE ( 'NONE',  #87 ) ;
#63 = DIRECTION ( 'NONE',  ( -3.491481338843133355E-15, 1.224646799147353207E-16, -1.000000000000000000 ) ) ;
#64 = DATE_AND_TIME ( #22, #69 ) ;
#65 = SHAPE_DEFINITION_REPRESENTATION ( #184, #151 ) ;
#66 = EDGE_LOOP ( 'NONE', ( #56 ) ) ;
#67 = DIRECTION ( 'NONE',  ( 0.0000000000000000000, 0.0000000000000000000, 1.000000000000000000 ) ) ;
#68 = COORDINATED_UNIVERSAL_TIME_OFFSET ( 1, 0, .AHEAD. ) ;
#69 = LOCAL_TIME ( 11, 26, 25.00000000000000000, #131 ) ;
#70 = CC_DESIGN_PERSON_AND_ORGANIZATION_ASSIGNMENT ( #171, #129, ( #170 ) ) ;
#71 = UNCERTAINTY_MEASURE_WITH_UNIT (LENGTH_MEASURE( 1.000000000000000082E-05 ), #78, 'distance_accuracy_value', 'NONE');
#72 = CC_DESIGN_DATE_AND_TIME_ASSIGNMENT ( #64, #20, ( #14 ) ) ;
#73 = EDGE_LOOP ( 'NONE', ( #128 ) ) ;
#74 = FACE_OUTER_BOUND ( 'NONE', #66, .T. ) ;
#75 = CARTESIAN_POINT ( 'NONE',  ( -4.204769007218878445E-33, 1.474834434472670202E-34, -1.204293707785385343E-18 ) ) ;
#76 = DIRECTION ( 'NONE',  ( -3.491481338843133355E-15, 1.224646799147353207E-16, -1.000000000000000000 ) ) ;
#77 = LOCAL_TIME ( 11, 26, 25.00000000000000000, #95 ) ;
#78 =( LENGTH_UNIT ( ) NAMED_UNIT ( * ) SI_UNIT ( .MILLI., .METRE. ) );
#79 = CARTESIAN_POINT ( 'NONE',  ( 1.316288464743861212E-13, -4.616918432785521081E-15, 37.69999999999999574 ) ) ;
#80 = APPLICATION_PROTOCOL_DEFINITION ( 'international standard', 'config_control_design', 1994, #196 ) ;
#81 =( NAMED_UNIT ( * ) SI_UNIT ( $, .STERADIAN. ) SOLID_ANGLE_UNIT ( ) );
#82 = MANIFOLD_SOLID_BREP ( 'Corps-Déplacer/Copier1[2]', #177 ) ;
#83 = PERSON_AND_ORGANIZATION ( #19, #154 ) ;
#84 = MANIFOLD_SOLID_BREP ( 'Corps-Déplacer/Copier1[1]', #97 ) ;
#85 = CALENDAR_DATE ( 2021, 22, 11 ) ;
#86 = PERSON_AND_ORGANIZATION_ROLE ( 'design_owner' ) ;
#87 = AXIS2_PLACEMENT_3D ( 'NONE', #75, #124, #59 ) ;
#88 = CIRCLE ( 'NONE', #143, 1.500000000000000000 ) ;
#89 = EDGE_LOOP ( 'NONE', ( #117 ) ) ;
#90 = FACE_BOUND ( 'NONE', #172, .T. ) ;
#91 = DIRECTION ( 'NONE',  ( -4.275831445896958607E-31, -1.000000000000000000, -1.224646799147353207E-16 ) ) ;
#92 = CARTESIAN_POINT ( 'NONE',  ( 8.617577878390877864E-15, 1.499999999999999778, 2.468172400785686005 ) ) ;
#93 = DIRECTION ( 'NONE',  ( 3.491481338843133355E-15, -1.224646799147353207E-16, 1.000000000000000000 ) ) ;
#94 = DIRECTION ( 'NONE',  ( -3.491481338843133355E-15, 1.224646799147353207E-16, -1.000000000000000000 ) ) ;
#95 = COORDINATED_UNIVERSAL_TIME_OFFSET ( 1, 0, .AHEAD. ) ;
#96 = APPROVAL_PERSON_ORGANIZATION ( #7, #165, #18 ) ;
#97 = CLOSED_SHELL ( 'NONE', ( #179, #155, #52, #127 ) ) ;
#98 = PERSON_AND_ORGANIZATION ( #19, #154 ) ;
#99 = CIRCLE ( 'NONE', #112, 0.07500000000000019151 ) ;
#100 = DATE_AND_TIME ( #12, #103 ) ;
#101 = ORIENTED_EDGE ( 'NONE', *, *, #21, .T. ) ;
#102 = AXIS2_PLACEMENT_3D ( 'NONE', #189, #67, #115 ) ;
#103 = LOCAL_TIME ( 11, 26, 25.00000000000000000, #194 ) ;
#104 = DIRECTION ( 'NONE',  ( 0.0000000000000000000, 1.000000000000000000, 0.0000000000000000000 ) ) ;
#105 = EDGE_LOOP ( 'NONE', ( #39 ) ) ;
#106 = CARTESIAN_POINT ( 'NONE',  ( 1.316288464743861212E-13, 1.499999999999995559, 37.69999999999999574 ) ) ;
#107 = CARTESIAN_POINT ( 'NONE',  ( 1.326762908760390423E-13, 1.199999999999995515, 38.00000000000000000 ) ) ;
#108 = DIRECTION ( 'NONE',  ( -3.491481338843133355E-15, 1.224646799147353207E-16, -1.000000000000000000 ) ) ;
#109 = EDGE_CURVE ( 'NONE', #119, #119, #121, .T. ) ;
#110 = VERTEX_POINT ( 'NONE', #156 ) ;
#111 = APPROVAL_DATE_TIME ( #47, #165 ) ;
#112 = AXIS2_PLACEMENT_3D ( 'NONE', #186, #108, #120 ) ;
#113 = ORIENTED_EDGE ( 'NONE', *, *, #149, .F. ) ;
#114 = SECURITY_CLASSIFICATION_LEVEL ( 'unclassified' ) ;
#115 = DIRECTION ( 'NONE',  ( 1.000000000000000000, 0.0000000000000000000, 0.0000000000000000000 ) ) ;
#116 = AXIS2_PLACEMENT_3D ( 'NONE', #123, #76, #202 ) ;
#117 = ORIENTED_EDGE ( 'NONE', *, *, #149, .T. ) ;
#118 = APPROVAL ( #159, 'UNSPECIFIED' ) ;
#119 = VERTEX_POINT ( 'NONE', #178 ) ;
#120 = DIRECTION ( 'NONE',  ( 4.275831445896958607E-31, 1.000000000000000000, 1.224646799147353207E-16 ) ) ;
#121 = CIRCLE ( 'NONE', #60, 1.500000000000000000 ) ;
#122 = PLANE ( 'NONE',  #33 ) ;
#123 = CARTESIAN_POINT ( 'NONE',  ( 0.0000000000000000000, 0.0000000000000000000, 0.0000000000000000000 ) ) ;
#124 = DIRECTION ( 'NONE',  ( 3.491481338843133355E-15, -1.224646799147353207E-16, 1.000000000000000000 ) ) ;
#125 = CARTESIAN_POINT ( 'NONE',  ( 8.617577878390877864E-15, -3.022639430366028945E-16, 2.468172400785686005 ) ) ;
#126 = PERSON_AND_ORGANIZATION_ROLE ( 'creator' ) ;
#127 = ADVANCED_FACE ( 'NONE', ( #74 ), #122, .F. ) ;
#128 = ORIENTED_EDGE ( 'NONE', *, *, #109, .T. ) ;
#129 = PERSON_AND_ORGANIZATION_ROLE ( 'classification_officer' ) ;
#130 = CONICAL_SURFACE ( 'NONE', #1, 1.500000000000000000, 0.7853981633974453924 ) ;
#131 = COORDINATED_UNIVERSAL_TIME_OFFSET ( 1, 0, .AHEAD. ) ;
#132 = CALENDAR_DATE ( 2021, 22, 11 ) ;
#133 = ORIENTED_EDGE ( 'NONE', *, *, #199, .F. ) ;
#134 = CIRCLE ( 'NONE', #25, 1.200000000000000178 ) ;
#135 = AXIS2_PLACEMENT_3D ( 'NONE', #182, #93, #45 ) ;
#136 = FACE_OUTER_BOUND ( 'NONE', #105, .T. ) ;
#137 = FACE_OUTER_BOUND ( 'NONE', #73, .T. ) ;
#138 = APPROVAL_PERSON_ORGANIZATION ( #145, #193, #160 ) ;
#139 = DIRECTION ( 'NONE',  ( 0.0000000000000000000, -1.000000000000000000, 0.0000000000000000000 ) ) ;
#140 = DIRECTION ( 'NONE',  ( 0.0000000000000000000, 1.000000000000000000, 0.0000000000000000000 ) ) ;
#141 = DIRECTION ( 'NONE',  ( 3.491481338843133355E-15, -1.224646799147353207E-16, 1.000000000000000000 ) ) ;
#142 = COORDINATED_UNIVERSAL_TIME_OFFSET ( 1, 0, .AHEAD. ) ;
#143 = AXIS2_PLACEMENT_3D ( 'NONE', #29, #63, #164 ) ;
#144 = CC_DESIGN_PERSON_AND_ORGANIZATION_ASSIGNMENT ( #98, #168, ( #197 ) ) ;
#145 = PERSON_AND_ORGANIZATION ( #19, #154 ) ;
#146 = PERSON_AND_ORGANIZATION ( #19, #154 ) ;
#147 = CONICAL_SURFACE ( 'NONE', #55, 1.500000000000000000, 0.5235987755982924874 ) ;
#148 = PERSON_AND_ORGANIZATION_ROLE ( 'creator' ) ;
#149 = EDGE_CURVE ( 'NONE', #42, #42, #88, .T. ) ;
#150 = CC_DESIGN_PERSON_AND_ORGANIZATION_ASSIGNMENT ( #146, #126, ( #197 ) ) ;
#151 = ADVANCED_BREP_SHAPE_REPRESENTATION ( '326701', ( #84, #82, #102 ), #163 ) ;
#152 = DIRECTION ( 'NONE',  ( -3.491481338843133355E-15, 1.224646799147353207E-16, -1.000000000000000000 ) ) ;
#153 = CARTESIAN_POINT ( 'NONE',  ( 1.326762908760390423E-13, 8.998558695971078593E-33, 38.00000000000000000 ) ) ;
#154 = ORGANIZATION ( 'UNSPECIFIED', 'UNSPECIFIED', '' ) ;
#155 = ADVANCED_FACE ( 'NONE', ( #16, #15 ), #181, .T. ) ;
#156 = CARTESIAN_POINT ( 'NONE',  ( 2.365919782978951696E-32, 0.07500000000000019151, 6.776263578034402713E-18 ) ) ;
#157 = FACE_OUTER_BOUND ( 'NONE', #162, .T. ) ;
#158 = VERTEX_POINT ( 'NONE', #107 ) ;
#159 = APPROVAL_STATUS ( 'not_yet_approved' ) ;
#160 = APPROVAL_ROLE ( '' ) ;
#161 = AXIS2_PLACEMENT_3D ( 'NONE', #166, #141, #91 ) ;
#162 = EDGE_LOOP ( 'NONE', ( #113 ) ) ;
#163 =( GEOMETRIC_REPRESENTATION_CONTEXT ( 3 ) GLOBAL_UNCERTAINTY_ASSIGNED_CONTEXT ( ( #71 ) ) GLOBAL_UNIT_ASSIGNED_CONTEXT ( ( #78, #200, #81 ) ) REPRESENTATION_CONTEXT ( 'NONE', 'WORKASPACE' ) );
#164 = DIRECTION ( 'NONE',  ( 0.0000000000000000000, 1.000000000000000000, 0.0000000000000000000 ) ) ;
#165 = APPROVAL ( #9, 'UNSPECIFIED' ) ;
#166 = CARTESIAN_POINT ( 'NONE',  ( 8.617577878390877864E-15, -7.135994344001609183E-16, 2.468172400785686005 ) ) ;
#167 = DIRECTION ( 'NONE',  ( 3.491481338843133355E-15, -1.224646799147353207E-16, 1.000000000000000000 ) ) ;
#168 = PERSON_AND_ORGANIZATION_ROLE ( 'design_supplier' ) ;
#169 = PERSON_AND_ORGANIZATION ( #19, #154 ) ;
#170 = SECURITY_CLASSIFICATION ( '', '', #114 ) ;
#171 = PERSON_AND_ORGANIZATION ( #19, #154 ) ;
#172 = EDGE_LOOP ( 'NONE', ( #101 ) ) ;
#173 = CC_DESIGN_PERSON_AND_ORGANIZATION_ASSIGNMENT ( #83, #148, ( #14 ) ) ;
#174 = EDGE_LOOP ( 'NONE', ( #190 ) ) ;
#175 = EDGE_LOOP ( 'NONE', ( #133 ) ) ;
#176 = EDGE_CURVE ( 'NONE', #46, #46, #34, .T. ) ;
#177 = CLOSED_SHELL ( 'NONE', ( #4, #36, #37 ) ) ;
#178 = CARTESIAN_POINT ( 'NONE',  ( 8.617577878390877864E-15, 1.499999999999999778, 2.468172400785686005 ) ) ;
#179 = ADVANCED_FACE ( 'NONE', ( #27 ), #57, .F. ) ;
#180 = CARTESIAN_POINT ( 'NONE',  ( 1.326762908760390423E-13, -4.653657836759941941E-15, 38.00000000000000000 ) ) ;
#181 = CYLINDRICAL_SURFACE ( 'NONE', #116, 1.500000000000000000 ) ;
#182 = CARTESIAN_POINT ( 'NONE',  ( 8.617577878390877864E-15, -7.135994344001609183E-16, 2.468172400785686005 ) ) ;
#183 = DIRECTION ( 'NONE',  ( -3.491481338843133355E-15, 1.224646799147353207E-16, -1.000000000000000000 ) ) ;
#184 = PRODUCT_DEFINITION_SHAPE ( 'NONE', 'NONE',  #14 ) ;
#185 = CC_DESIGN_APPROVAL ( #165, ( #170 ) ) ;
#186 = CARTESIAN_POINT ( 'NONE',  ( -8.409538014437756891E-33, 2.949668868945340404E-34, -2.408587415570770685E-18 ) ) ;
#187 = CALENDAR_DATE ( 2021, 22, 11 ) ;
#188 = FACE_OUTER_BOUND ( 'NONE', #8, .T. ) ;
#189 = CARTESIAN_POINT ( 'NONE',  ( 0.0000000000000000000, 0.0000000000000000000, 0.0000000000000000000 ) ) ;
#190 = ORIENTED_EDGE ( 'NONE', *, *, #176, .T. ) ;
#191 = PERSON_AND_ORGANIZATION ( #19, #154 ) ;
#192 = CC_DESIGN_SECURITY_CLASSIFICATION ( #170, ( #197 ) ) ;
#193 = APPROVAL ( #50, 'UNSPECIFIED' ) ;
#194 = COORDINATED_UNIVERSAL_TIME_OFFSET ( 1, 0, .AHEAD. ) ;
#195 = DATE_AND_TIME ( #132, #41 ) ;
#196 = APPLICATION_CONTEXT ( 'configuration controlled 3d designs of mechanical parts and assemblies' ) ;
#197 = PRODUCT_DEFINITION_FORMATION_WITH_SPECIFIED_SOURCE ( 'ANY', '', #203, .NOT_KNOWN. ) ;
#198 = ORIENTED_EDGE ( 'NONE', *, *, #176, .F. ) ;
#199 = EDGE_CURVE ( 'NONE', #110, #110, #99, .T. ) ;
#200 =( NAMED_UNIT ( * ) PLANE_ANGLE_UNIT ( ) SI_UNIT ( $, .RADIAN. ) );
#201 = PRODUCT_RELATED_PRODUCT_CATEGORY ( 'detail', '', ( #203 ) ) ;
#202 = DIRECTION ( 'NONE',  ( 4.275831445896959482E-31, 1.000000000000000000, 1.224646799147353207E-16 ) ) ;
#203 = PRODUCT ( '326701', '326701', '', ( #31 ) ) ;
ENDSEC;
END-ISO-10303-21;
