ISO-10303-21;
HEADER;
FILE_DESCRIPTION (( 'STEP AP203' ),
    '1' );
FILE_NAME ('326700.step',
    '2021-11-22T10:26:24',
    ( '' ),
    ( '' ),
    'SwSTEP 2.0',
    'SolidWorks 2019',
    '' );
FILE_SCHEMA (( 'CONFIG_CONTROL_DESIGN' ));
ENDSEC;

DATA;
#1 = CARTESIAN_POINT ( 'NONE',  ( 1.326762908760390423E-13, 1.199999999999995515, 38.00000000000000000 ) ) ;
#2 = PERSON_AND_ORGANIZATION ( #203, #144 ) ;
#3 = PERSON_AND_ORGANIZATION ( #203, #144 ) ;
#4 = CARTESIAN_POINT ( 'NONE',  ( 8.768763455204751502E-15, 1.499999999999999778, 2.511473670974908146 ) ) ;
#5 = DIRECTION ( 'NONE',  ( 4.275831445896959482E-31, 1.000000000000000000, 1.224646799147353207E-16 ) ) ;
#6 = CARTESIAN_POINT ( 'NONE',  ( 8.768763455204751502E-15, 1.124819836996392932E-32, 2.511473670974908146 ) ) ;
#7 = PERSON_AND_ORGANIZATION_ROLE ( 'design_supplier' ) ;
#8 = CARTESIAN_POINT ( 'NONE',  ( 8.768763455204751502E-15, -3.075668192302274254E-16, 2.511473670974908146 ) ) ;
#9 = APPROVAL_PERSON_ORGANIZATION ( #156, #126, #136 ) ;
#10 = COORDINATED_UNIVERSAL_TIME_OFFSET ( 1, 0, .AHEAD. ) ;
#11 = ADVANCED_FACE ( 'NONE', ( #46, #23 ), #28, .T. ) ;
#12 = AXIS2_PLACEMENT_3D ( 'NONE', #8, #116, #106 ) ;
#13 = DESIGN_CONTEXT ( 'detailed design', #17, 'design' ) ;
#14 = ADVANCED_BREP_SHAPE_REPRESENTATION ( '326700', ( #124, #65, #197 ), #33 ) ;
#15 = LOCAL_TIME ( 11, 26, 24.00000000000000000, #69 ) ;
#16 = PERSON_AND_ORGANIZATION_ROLE ( 'design_owner' ) ;
#17 = APPLICATION_CONTEXT ( 'configuration controlled 3d designs of mechanical parts and assemblies' ) ;
#18 = DATE_AND_TIME ( #160, #15 ) ;
#19 = APPROVAL_PERSON_ORGANIZATION ( #3, #105, #36 ) ;
#20 = APPROVAL_STATUS ( 'not_yet_approved' ) ;
#21 = DIRECTION ( 'NONE',  ( 0.0000000000000000000, 1.000000000000000000, 0.0000000000000000000 ) ) ;
#22 = PERSON_AND_ORGANIZATION ( #203, #144 ) ;
#23 = FACE_OUTER_BOUND ( 'NONE', #92, .T. ) ;
#24 = DIRECTION ( 'NONE',  ( 3.491481338843133355E-15, -1.224646799147353207E-16, 1.000000000000000000 ) ) ;
#25 = CARTESIAN_POINT ( 'NONE',  ( 0.0000000000000000000, 0.0000000000000000000, 0.0000000000000000000 ) ) ;
#26 = FACE_OUTER_BOUND ( 'NONE', #183, .T. ) ;
#27 = CALENDAR_DATE ( 2021, 22, 11 ) ;
#28 = CONICAL_SURFACE ( 'NONE', #12, 1.500000000000000000, 0.5235987755982925984 ) ;
#29 = CARTESIAN_POINT ( 'NONE',  ( 1.326762908760390423E-13, -4.653657836759941941E-15, 38.00000000000000000 ) ) ;
#30 = APPROVAL ( #20, 'UNSPECIFIED' ) ;
#31 = UNCERTAINTY_MEASURE_WITH_UNIT (LENGTH_MEASURE( 1.000000000000000082E-05 ), #35, 'distance_accuracy_value', 'NONE');
#32 = CC_DESIGN_PERSON_AND_ORGANIZATION_ASSIGNMENT ( #64, #193, ( #187 ) ) ;
#33 =( GEOMETRIC_REPRESENTATION_CONTEXT ( 3 ) GLOBAL_UNCERTAINTY_ASSIGNED_CONTEXT ( ( #31 ) ) GLOBAL_UNIT_ASSIGNED_CONTEXT ( ( #35, #99, #68 ) ) REPRESENTATION_CONTEXT ( 'NONE', 'WORKASPACE' ) );
#34 = APPLICATION_PROTOCOL_DEFINITION ( 'international standard', 'config_control_design', 1994, #17 ) ;
#35 =( LENGTH_UNIT ( ) NAMED_UNIT ( * ) SI_UNIT ( .MILLI., .METRE. ) );
#36 = APPROVAL_ROLE ( '' ) ;
#37 = CC_DESIGN_APPROVAL ( #126, ( #185 ) ) ;
#38 = COORDINATED_UNIVERSAL_TIME_OFFSET ( 1, 0, .AHEAD. ) ;
#39 = DIRECTION ( 'NONE',  ( -4.275831445896958607E-31, -1.000000000000000000, -1.224646799147353207E-16 ) ) ;
#40 = CARTESIAN_POINT ( 'NONE',  ( 1.316288464743861212E-13, -4.616918432785521081E-15, 37.69999999999999574 ) ) ;
#41 = ADVANCED_FACE ( 'NONE', ( #62 ), #56, .T. ) ;
#42 = CIRCLE ( 'NONE', #81, 1.500000000000000000 ) ;
#43 = FACE_OUTER_BOUND ( 'NONE', #58, .T. ) ;
#44 = CARTESIAN_POINT ( 'NONE',  ( -1.068957861474244332E-32, 3.749399456654660270E-34, -3.061616997868396268E-18 ) ) ;
#45 = SHAPE_DEFINITION_REPRESENTATION ( #201, #14 ) ;
#46 = FACE_BOUND ( 'NONE', #200, .T. ) ;
#47 = AXIS2_PLACEMENT_3D ( 'NONE', #104, #74, #192 ) ;
#48 = EDGE_CURVE ( 'NONE', #54, #54, #100, .T. ) ;
#49 = CARTESIAN_POINT ( 'NONE',  ( 1.326762908760390423E-13, 8.998558695971078593E-33, 38.00000000000000000 ) ) ;
#50 = AXIS2_PLACEMENT_3D ( 'NONE', #150, #75, #78 ) ;
#51 = EDGE_CURVE ( 'NONE', #55, #55, #117, .T. ) ;
#52 = DIRECTION ( 'NONE',  ( -3.491481338843133355E-15, 1.224646799147353207E-16, -1.000000000000000000 ) ) ;
#53 = EDGE_CURVE ( 'NONE', #147, #147, #110, .T. ) ;
#54 = VERTEX_POINT ( 'NONE', #163 ) ;
#55 = VERTEX_POINT ( 'NONE', #109 ) ;
#56 = PLANE ( 'NONE',  #202 ) ;
#57 = SECURITY_CLASSIFICATION_LEVEL ( 'unclassified' ) ;
#58 = EDGE_LOOP ( 'NONE', ( #196 ) ) ;
#59 = DATE_TIME_ROLE ( 'classification_date' ) ;
#60 = ORIENTED_EDGE ( 'NONE', *, *, #53, .F. ) ;
#61 = CLOSED_SHELL ( 'NONE', ( #98, #11, #41 ) ) ;
#62 = FACE_OUTER_BOUND ( 'NONE', #180, .T. ) ;
#63 = ORIENTED_EDGE ( 'NONE', *, *, #48, .F. ) ;
#64 = PERSON_AND_ORGANIZATION ( #203, #144 ) ;
#65 = MANIFOLD_SOLID_BREP ( 'Corps-Déplacer/Copier1[2]', #61 ) ;
#66 = CC_DESIGN_DATE_AND_TIME_ASSIGNMENT ( #87, #59, ( #185 ) ) ;
#67 = PLANE ( 'NONE',  #120 ) ;
#68 =( NAMED_UNIT ( * ) SI_UNIT ( $, .STERADIAN. ) SOLID_ANGLE_UNIT ( ) );
#69 = COORDINATED_UNIVERSAL_TIME_OFFSET ( 1, 0, .AHEAD. ) ;
#70 = AXIS2_PLACEMENT_3D ( 'NONE', #71, #142, #21 ) ;
#71 = CARTESIAN_POINT ( 'NONE',  ( 1.316288464743861212E-13, -4.616918432785521081E-15, 37.69999999999999574 ) ) ;
#72 = CARTESIAN_POINT ( 'NONE',  ( 8.768763455204751502E-15, 1.124819836996392932E-32, 2.511473670974908146 ) ) ;
#73 = PRODUCT_DEFINITION ( 'UNKNOWN', '', #187, #13 ) ;
#74 = DIRECTION ( 'NONE',  ( -3.491481338843133355E-15, 1.224646799147353207E-16, -1.000000000000000000 ) ) ;
#75 = DIRECTION ( 'NONE',  ( -3.491481338843133355E-15, 1.224646799147353207E-16, -1.000000000000000000 ) ) ;
#76 = DIRECTION ( 'NONE',  ( -3.491481338843133355E-15, 1.224646799147353207E-16, -1.000000000000000000 ) ) ;
#77 = AXIS2_PLACEMENT_3D ( 'NONE', #29, #151, #113 ) ;
#78 = DIRECTION ( 'NONE',  ( 0.0000000000000000000, 1.000000000000000000, 0.0000000000000000000 ) ) ;
#79 = CALENDAR_DATE ( 2021, 22, 11 ) ;
#80 = CC_DESIGN_PERSON_AND_ORGANIZATION_ASSIGNMENT ( #152, #7, ( #187 ) ) ;
#81 = AXIS2_PLACEMENT_3D ( 'NONE', #86, #178, #145 ) ;
#82 = FACE_BOUND ( 'NONE', #179, .T. ) ;
#83 = CC_DESIGN_PERSON_AND_ORGANIZATION_ASSIGNMENT ( #159, #16, ( #107 ) ) ;
#84 = CLOSED_SHELL ( 'NONE', ( #146, #122, #172, #158 ) ) ;
#85 = COORDINATED_UNIVERSAL_TIME_OFFSET ( 1, 0, .AHEAD. ) ;
#86 = CARTESIAN_POINT ( 'NONE',  ( 8.768763455204751502E-15, -3.075668192302274254E-16, 2.511473670974908146 ) ) ;
#87 = DATE_AND_TIME ( #195, #149 ) ;
#88 = DIRECTION ( 'NONE',  ( 3.491481338843133355E-15, -1.224646799147353207E-16, 1.000000000000000000 ) ) ;
#89 = AXIS2_PLACEMENT_3D ( 'NONE', #40, #181, #148 ) ;
#90 = DIRECTION ( 'NONE',  ( -4.275831445896958607E-31, -1.000000000000000000, -1.224646799147353207E-16 ) ) ;
#91 = APPROVAL_DATE_TIME ( #102, #105 ) ;
#92 = EDGE_LOOP ( 'NONE', ( #153 ) ) ;
#93 = EDGE_CURVE ( 'NONE', #176, #176, #171, .T. ) ;
#94 = EDGE_LOOP ( 'NONE', ( #198 ) ) ;
#95 = CONICAL_SURFACE ( 'NONE', #70, 1.500000000000000000, 0.7853981633974453924 ) ;
#96 = MECHANICAL_CONTEXT ( 'NONE', #121, 'mechanical' ) ;
#97 = DATE_AND_TIME ( #186, #108 ) ;
#98 = ADVANCED_FACE ( 'NONE', ( #43 ), #133, .F. ) ;
#99 =( NAMED_UNIT ( * ) PLANE_ANGLE_UNIT ( ) SI_UNIT ( $, .RADIAN. ) );
#100 = CIRCLE ( 'NONE', #50, 1.500000000000000000 ) ;
#101 = PERSON_AND_ORGANIZATION_ROLE ( 'creator' ) ;
#102 = DATE_AND_TIME ( #27, #174 ) ;
#103 = CYLINDRICAL_SURFACE ( 'NONE', #188, 1.500000000000000000 ) ;
#104 = CARTESIAN_POINT ( 'NONE',  ( -2.137915722948488664E-32, 7.498798913309320540E-34, -6.123233995736792537E-18 ) ) ;
#105 = APPROVAL ( #130, 'UNSPECIFIED' ) ;
#106 = DIRECTION ( 'NONE',  ( 0.0000000000000000000, -1.000000000000000000, 0.0000000000000000000 ) ) ;
#107 = PRODUCT ( '326700', '326700', '', ( #96 ) ) ;
#108 = LOCAL_TIME ( 11, 26, 24.00000000000000000, #38 ) ;
#109 = CARTESIAN_POINT ( 'NONE',  ( 0.0000000000000000000, 0.05000000000000021788, 0.0000000000000000000 ) ) ;
#110 = CIRCLE ( 'NONE', #77, 1.200000000000000178 ) ;
#111 = PERSON_AND_ORGANIZATION ( #203, #144 ) ;
#112 = APPLICATION_PROTOCOL_DEFINITION ( 'international standard', 'config_control_design', 1994, #121 ) ;
#113 = DIRECTION ( 'NONE',  ( 0.0000000000000000000, 1.000000000000000000, 0.0000000000000000000 ) ) ;
#114 = ORIENTED_EDGE ( 'NONE', *, *, #165, .F. ) ;
#115 = DATE_AND_TIME ( #79, #123 ) ;
#116 = DIRECTION ( 'NONE',  ( 3.491481338843133355E-15, -1.224646799147353207E-16, 1.000000000000000000 ) ) ;
#117 = CIRCLE ( 'NONE', #47, 0.05000000000000021788 ) ;
#118 = ORIENTED_EDGE ( 'NONE', *, *, #93, .F. ) ;
#119 = APPROVAL_DATE_TIME ( #115, #126 ) ;
#120 = AXIS2_PLACEMENT_3D ( 'NONE', #49, #52, #129 ) ;
#121 = APPLICATION_CONTEXT ( 'configuration controlled 3d designs of mechanical parts and assemblies' ) ;
#122 = ADVANCED_FACE ( 'NONE', ( #169, #168 ), #103, .T. ) ;
#123 = LOCAL_TIME ( 11, 26, 24.00000000000000000, #10 ) ;
#124 = MANIFOLD_SOLID_BREP ( 'Corps-Déplacer/Copier1[1]', #84 ) ;
#125 = APPROVAL_ROLE ( '' ) ;
#126 = APPROVAL ( #182, 'UNSPECIFIED' ) ;
#127 = CARTESIAN_POINT ( 'NONE',  ( 1.316288464743861212E-13, 1.499999999999995559, 37.69999999999999574 ) ) ;
#128 = AXIS2_PLACEMENT_3D ( 'NONE', #44, #194, #39 ) ;
#129 = DIRECTION ( 'NONE',  ( 4.275831445896958607E-31, 1.000000000000000000, 1.224646799147353207E-16 ) ) ;
#130 = APPROVAL_STATUS ( 'not_yet_approved' ) ;
#131 = DIRECTION ( 'NONE',  ( 1.000000000000000000, 0.0000000000000000000, 0.0000000000000000000 ) ) ;
#132 = ORIENTED_EDGE ( 'NONE', *, *, #53, .T. ) ;
#133 = PLANE ( 'NONE',  #128 ) ;
#134 = CC_DESIGN_PERSON_AND_ORGANIZATION_ASSIGNMENT ( #2, #101, ( #73 ) ) ;
#135 = ORIENTED_EDGE ( 'NONE', *, *, #51, .F. ) ;
#136 = APPROVAL_ROLE ( '' ) ;
#137 = EDGE_LOOP ( 'NONE', ( #60 ) ) ;
#138 = CC_DESIGN_APPROVAL ( #105, ( #187 ) ) ;
#139 = COORDINATED_UNIVERSAL_TIME_OFFSET ( 1, 0, .AHEAD. ) ;
#140 = APPROVAL_PERSON_ORGANIZATION ( #111, #30, #125 ) ;
#141 = CC_DESIGN_APPROVAL ( #30, ( #73 ) ) ;
#142 = DIRECTION ( 'NONE',  ( -3.491481338843133355E-15, 1.224646799147353207E-16, -1.000000000000000000 ) ) ;
#143 = DATE_TIME_ROLE ( 'creation_date' ) ;
#144 = ORGANIZATION ( 'UNSPECIFIED', 'UNSPECIFIED', '' ) ;
#145 = DIRECTION ( 'NONE',  ( 0.0000000000000000000, 1.000000000000000000, 0.0000000000000000000 ) ) ;
#146 = ADVANCED_FACE ( 'NONE', ( #26 ), #167, .F. ) ;
#147 = VERTEX_POINT ( 'NONE', #1 ) ;
#148 = DIRECTION ( 'NONE',  ( 0.0000000000000000000, 1.000000000000000000, 0.0000000000000000000 ) ) ;
#149 = LOCAL_TIME ( 11, 26, 24.00000000000000000, #139 ) ;
#150 = CARTESIAN_POINT ( 'NONE',  ( 8.768763455204751502E-15, -3.075668192302274254E-16, 2.511473670974908146 ) ) ;
#151 = DIRECTION ( 'NONE',  ( -3.491481338843133355E-15, 1.224646799147353207E-16, -1.000000000000000000 ) ) ;
#152 = PERSON_AND_ORGANIZATION ( #203, #144 ) ;
#153 = ORIENTED_EDGE ( 'NONE', *, *, #165, .T. ) ;
#154 = EDGE_LOOP ( 'NONE', ( #118 ) ) ;
#155 = CC_DESIGN_SECURITY_CLASSIFICATION ( #185, ( #187 ) ) ;
#156 = PERSON_AND_ORGANIZATION ( #203, #144 ) ;
#157 = FACE_OUTER_BOUND ( 'NONE', #137, .T. ) ;
#158 = ADVANCED_FACE ( 'NONE', ( #157 ), #67, .F. ) ;
#159 = PERSON_AND_ORGANIZATION ( #203, #144 ) ;
#160 = CALENDAR_DATE ( 2021, 22, 11 ) ;
#161 = CARTESIAN_POINT ( 'NONE',  ( 0.0000000000000000000, 0.0000000000000000000, 0.0000000000000000000 ) ) ;
#162 = PRODUCT_RELATED_PRODUCT_CATEGORY ( 'detail', '', ( #107 ) ) ;
#163 = CARTESIAN_POINT ( 'NONE',  ( 8.768763455204751502E-15, 1.499999999999999778, 2.511473670974908146 ) ) ;
#164 = EDGE_LOOP ( 'NONE', ( #63 ) ) ;
#165 = EDGE_CURVE ( 'NONE', #191, #191, #42, .T. ) ;
#166 = PERSON_AND_ORGANIZATION_ROLE ( 'classification_officer' ) ;
#167 = PLANE ( 'NONE',  #177 ) ;
#168 = FACE_OUTER_BOUND ( 'NONE', #164, .T. ) ;
#169 = FACE_OUTER_BOUND ( 'NONE', #94, .T. ) ;
#170 = DIRECTION ( 'NONE',  ( -4.275831445896958607E-31, -1.000000000000000000, -1.224646799147353207E-16 ) ) ;
#171 = CIRCLE ( 'NONE', #89, 1.500000000000000000 ) ;
#172 = ADVANCED_FACE ( 'NONE', ( #82, #190 ), #95, .T. ) ;
#173 = DIRECTION ( 'NONE',  ( 0.0000000000000000000, 0.0000000000000000000, 1.000000000000000000 ) ) ;
#174 = LOCAL_TIME ( 11, 26, 24.00000000000000000, #85 ) ;
#175 = APPROVAL_DATE_TIME ( #97, #30 ) ;
#176 = VERTEX_POINT ( 'NONE', #127 ) ;
#177 = AXIS2_PLACEMENT_3D ( 'NONE', #72, #24, #90 ) ;
#178 = DIRECTION ( 'NONE',  ( -3.491481338843133355E-15, 1.224646799147353207E-16, -1.000000000000000000 ) ) ;
#179 = EDGE_LOOP ( 'NONE', ( #132 ) ) ;
#180 = EDGE_LOOP ( 'NONE', ( #114 ) ) ;
#181 = DIRECTION ( 'NONE',  ( -3.491481338843133355E-15, 1.224646799147353207E-16, -1.000000000000000000 ) ) ;
#182 = APPROVAL_STATUS ( 'not_yet_approved' ) ;
#183 = EDGE_LOOP ( 'NONE', ( #184 ) ) ;
#184 = ORIENTED_EDGE ( 'NONE', *, *, #48, .T. ) ;
#185 = SECURITY_CLASSIFICATION ( '', '', #57 ) ;
#186 = CALENDAR_DATE ( 2021, 22, 11 ) ;
#187 = PRODUCT_DEFINITION_FORMATION_WITH_SPECIFIED_SOURCE ( 'ANY', '', #107, .NOT_KNOWN. ) ;
#188 = AXIS2_PLACEMENT_3D ( 'NONE', #25, #76, #5 ) ;
#189 = CC_DESIGN_PERSON_AND_ORGANIZATION_ASSIGNMENT ( #22, #166, ( #185 ) ) ;
#190 = FACE_OUTER_BOUND ( 'NONE', #154, .T. ) ;
#191 = VERTEX_POINT ( 'NONE', #4 ) ;
#192 = DIRECTION ( 'NONE',  ( 4.275831445896958607E-31, 1.000000000000000000, 1.224646799147353207E-16 ) ) ;
#193 = PERSON_AND_ORGANIZATION_ROLE ( 'creator' ) ;
#194 = DIRECTION ( 'NONE',  ( 3.491481338843133355E-15, -1.224646799147353207E-16, 1.000000000000000000 ) ) ;
#195 = CALENDAR_DATE ( 2021, 22, 11 ) ;
#196 = ORIENTED_EDGE ( 'NONE', *, *, #51, .T. ) ;
#197 = AXIS2_PLACEMENT_3D ( 'NONE', #161, #173, #131 ) ;
#198 = ORIENTED_EDGE ( 'NONE', *, *, #93, .T. ) ;
#199 = CC_DESIGN_DATE_AND_TIME_ASSIGNMENT ( #18, #143, ( #73 ) ) ;
#200 = EDGE_LOOP ( 'NONE', ( #135 ) ) ;
#201 = PRODUCT_DEFINITION_SHAPE ( 'NONE', 'NONE',  #73 ) ;
#202 = AXIS2_PLACEMENT_3D ( 'NONE', #6, #88, #170 ) ;
#203 = PERSON ( 'UNSPECIFIED', 'UNSPECIFIED', 'UNSPECIFIED', ('UNSPECIFIED'), ('UNSPECIFIED'), ('UNSPECIFIED') ) ;
ENDSEC;
END-ISO-10303-21;
