ISO-10303-21;
HEADER;
FILE_DESCRIPTION (( 'STEP AP203' ),
    '1' );
FILE_NAME ('326699.step',
    '2021-11-22T10:26:24',
    ( '' ),
    ( '' ),
    'SwSTEP 2.0',
    'SolidWorks 2019',
    '' );
FILE_SCHEMA (( 'CONFIG_CONTROL_DESIGN' ));
ENDSEC;

DATA;
#1 = PERSON_AND_ORGANIZATION ( #165, #162 ) ;
#2 = EDGE_CURVE ( 'NONE', #166, #166, #156, .T. ) ;
#3 = PERSON_AND_ORGANIZATION ( #165, #162 ) ;
#4 = PERSON_AND_ORGANIZATION ( #165, #162 ) ;
#5 = DATE_TIME_ROLE ( 'creation_date' ) ;
#6 = EDGE_LOOP ( 'NONE', ( #35 ) ) ;
#7 = PERSON_AND_ORGANIZATION_ROLE ( 'design_supplier' ) ;
#8 = DIRECTION ( 'NONE',  ( -3.491481338843133355E-15, 1.224646799147353207E-16, -1.000000000000000000 ) ) ;
#9 = ORIENTED_EDGE ( 'NONE', *, *, #203, .T. ) ;
#10 = DIRECTION ( 'NONE',  ( 4.275831445896958607E-31, 1.000000000000000000, 1.224646799147353207E-16 ) ) ;
#11 = CARTESIAN_POINT ( 'NONE',  ( 8.829237685930301589E-15, 1.499999999999999778, 2.528794179050597446 ) ) ;
#12 = CC_DESIGN_PERSON_AND_ORGANIZATION_ASSIGNMENT ( #123, #95, ( #186 ) ) ;
#13 =( GEOMETRIC_REPRESENTATION_CONTEXT ( 3 ) GLOBAL_UNCERTAINTY_ASSIGNED_CONTEXT ( ( #63 ) ) GLOBAL_UNIT_ASSIGNED_CONTEXT ( ( #153, #41, #45 ) ) REPRESENTATION_CONTEXT ( 'NONE', 'WORKASPACE' ) );
#14 = LOCAL_TIME ( 11, 26, 24.00000000000000000, #124 ) ;
#15 = PERSON_AND_ORGANIZATION_ROLE ( 'classification_officer' ) ;
#16 = ADVANCED_FACE ( 'NONE', ( #177, #128 ), #109, .T. ) ;
#17 = EDGE_LOOP ( 'NONE', ( #81 ) ) ;
#18 = DIRECTION ( 'NONE',  ( 1.000000000000000000, 0.0000000000000000000, 0.0000000000000000000 ) ) ;
#19 = EDGE_LOOP ( 'NONE', ( #132 ) ) ;
#20 = EDGE_LOOP ( 'NONE', ( #194 ) ) ;
#21 = APPLICATION_PROTOCOL_DEFINITION ( 'international standard', 'config_control_design', 1994, #82 ) ;
#22 = CARTESIAN_POINT ( 'NONE',  ( 8.829237685930301589E-15, -7.311264380520946195E-16, 2.528794179050597446 ) ) ;
#23 = AXIS2_PLACEMENT_3D ( 'NONE', #22, #173, #86 ) ;
#24 = DIRECTION ( 'NONE',  ( 3.491481338843133355E-15, -1.224646799147353207E-16, 1.000000000000000000 ) ) ;
#25 = CARTESIAN_POINT ( 'NONE',  ( -8.551662891793932211E-33, 2.999519565323720433E-34, -2.449293598294710621E-18 ) ) ;
#26 = CC_DESIGN_DATE_AND_TIME_ASSIGNMENT ( #68, #141, ( #105 ) ) ;
#27 = AXIS2_PLACEMENT_3D ( 'NONE', #198, #103, #77 ) ;
#28 = CONICAL_SURFACE ( 'NONE', #27, 1.500000000000000000, 0.5235987755982925984 ) ;
#29 = DIRECTION ( 'NONE',  ( 0.0000000000000000000, 0.0000000000000000000, 1.000000000000000000 ) ) ;
#30 = DIRECTION ( 'NONE',  ( -3.491481338843133355E-15, 1.224646799147353207E-16, -1.000000000000000000 ) ) ;
#31 = CARTESIAN_POINT ( 'NONE',  ( 8.829237685930301589E-15, -3.096879697076772673E-16, 2.528794179050597446 ) ) ;
#32 = EDGE_LOOP ( 'NONE', ( #87 ) ) ;
#33 = CC_DESIGN_APPROVAL ( #185, ( #56 ) ) ;
#34 = PERSON_AND_ORGANIZATION ( #165, #162 ) ;
#35 = ORIENTED_EDGE ( 'NONE', *, *, #104, .F. ) ;
#36 = PERSON_AND_ORGANIZATION ( #165, #162 ) ;
#37 = CC_DESIGN_DATE_AND_TIME_ASSIGNMENT ( #143, #5, ( #56 ) ) ;
#38 = FACE_BOUND ( 'NONE', #147, .T. ) ;
#39 = AXIS2_PLACEMENT_3D ( 'NONE', #64, #29, #18 ) ;
#40 = VERTEX_POINT ( 'NONE', #61 ) ;
#41 =( NAMED_UNIT ( * ) PLANE_ANGLE_UNIT ( ) SI_UNIT ( $, .RADIAN. ) );
#42 = VERTEX_POINT ( 'NONE', #202 ) ;
#43 = AXIS2_PLACEMENT_3D ( 'NONE', #50, #57, #149 ) ;
#44 = APPROVAL_PERSON_ORGANIZATION ( #3, #185, #146 ) ;
#45 =( NAMED_UNIT ( * ) SI_UNIT ( $, .STERADIAN. ) SOLID_ANGLE_UNIT ( ) );
#46 = APPROVAL_STATUS ( 'not_yet_approved' ) ;
#47 = CIRCLE ( 'NONE', #91, 1.500000000000000000 ) ;
#48 = DIRECTION ( 'NONE',  ( 0.0000000000000000000, 1.000000000000000000, 0.0000000000000000000 ) ) ;
#49 = COORDINATED_UNIVERSAL_TIME_OFFSET ( 1, 0, .AHEAD. ) ;
#50 = CARTESIAN_POINT ( 'NONE',  ( 1.326762908760390423E-13, 8.998558695971078593E-33, 38.00000000000000000 ) ) ;
#51 = APPROVAL_DATE_TIME ( #99, #155 ) ;
#52 = DIRECTION ( 'NONE',  ( -4.275831445896958607E-31, -1.000000000000000000, -1.224646799147353207E-16 ) ) ;
#53 = MECHANICAL_CONTEXT ( 'NONE', #176, 'mechanical' ) ;
#54 = CARTESIAN_POINT ( 'NONE',  ( 1.326762908760390423E-13, -4.653657836759941941E-15, 38.00000000000000000 ) ) ;
#55 = LOCAL_TIME ( 11, 26, 24.00000000000000000, #110 ) ;
#56 = PRODUCT_DEFINITION ( 'UNKNOWN', '', #196, #79 ) ;
#57 = DIRECTION ( 'NONE',  ( -3.491481338843133355E-15, 1.224646799147353207E-16, -1.000000000000000000 ) ) ;
#58 = DIRECTION ( 'NONE',  ( -4.275831445896958607E-31, -1.000000000000000000, -1.224646799147353207E-16 ) ) ;
#59 = DIRECTION ( 'NONE',  ( -3.491481338843133355E-15, 1.224646799147353207E-16, -1.000000000000000000 ) ) ;
#60 = CIRCLE ( 'NONE', #137, 1.500000000000000000 ) ;
#61 = CARTESIAN_POINT ( 'NONE',  ( 0.0000000000000000000, 0.04000000000000007022, 0.0000000000000000000 ) ) ;
#62 = CC_DESIGN_PERSON_AND_ORGANIZATION_ASSIGNMENT ( #4, #15, ( #105 ) ) ;
#63 = UNCERTAINTY_MEASURE_WITH_UNIT (LENGTH_MEASURE( 1.000000000000000082E-05 ), #153, 'distance_accuracy_value', 'NONE');
#64 = CARTESIAN_POINT ( 'NONE',  ( 0.0000000000000000000, 0.0000000000000000000, 0.0000000000000000000 ) ) ;
#65 = EDGE_LOOP ( 'NONE', ( #9 ) ) ;
#66 = COORDINATED_UNIVERSAL_TIME_OFFSET ( 1, 0, .AHEAD. ) ;
#67 = EDGE_LOOP ( 'NONE', ( #145 ) ) ;
#68 = DATE_AND_TIME ( #127, #74 ) ;
#69 = EDGE_LOOP ( 'NONE', ( #72 ) ) ;
#70 = APPROVAL_DATE_TIME ( #112, #185 ) ;
#71 = ADVANCED_FACE ( 'NONE', ( #197 ), #94, .F. ) ;
#72 = ORIENTED_EDGE ( 'NONE', *, *, #2, .F. ) ;
#73 = CIRCLE ( 'NONE', #138, 1.500000000000000000 ) ;
#74 = LOCAL_TIME ( 11, 26, 24.00000000000000000, #49 ) ;
#75 = DIRECTION ( 'NONE',  ( -3.491481338843133355E-15, 1.224646799147353207E-16, -1.000000000000000000 ) ) ;
#76 = CARTESIAN_POINT ( 'NONE',  ( 1.316288464743861212E-13, -4.616918432785521081E-15, 37.69999999999999574 ) ) ;
#77 = DIRECTION ( 'NONE',  ( 0.0000000000000000000, -1.000000000000000000, 0.0000000000000000000 ) ) ;
#78 = ADVANCED_FACE ( 'NONE', ( #83 ), #129, .F. ) ;
#79 = DESIGN_CONTEXT ( 'detailed design', #82, 'design' ) ;
#80 = CALENDAR_DATE ( 2021, 22, 11 ) ;
#81 = ORIENTED_EDGE ( 'NONE', *, *, #106, .T. ) ;
#82 = APPLICATION_CONTEXT ( 'configuration controlled 3d designs of mechanical parts and assemblies' ) ;
#83 = FACE_OUTER_BOUND ( 'NONE', #69, .T. ) ;
#84 = CALENDAR_DATE ( 2021, 22, 11 ) ;
#85 = PRODUCT_RELATED_PRODUCT_CATEGORY ( 'detail', '', ( #186 ) ) ;
#86 = DIRECTION ( 'NONE',  ( -4.275831445896958607E-31, -1.000000000000000000, -1.224646799147353207E-16 ) ) ;
#87 = ORIENTED_EDGE ( 'NONE', *, *, #193, .T. ) ;
#88 = DIRECTION ( 'NONE',  ( -3.491481338843133355E-15, 1.224646799147353207E-16, -1.000000000000000000 ) ) ;
#89 = PLANE ( 'NONE',  #139 ) ;
#90 = ADVANCED_FACE ( 'NONE', ( #111 ), #114, .T. ) ;
#91 = AXIS2_PLACEMENT_3D ( 'NONE', #76, #59, #100 ) ;
#92 = APPROVAL_DATE_TIME ( #130, #133 ) ;
#93 = CC_DESIGN_PERSON_AND_ORGANIZATION_ASSIGNMENT ( #34, #7, ( #196 ) ) ;
#94 = PLANE ( 'NONE',  #125 ) ;
#95 = PERSON_AND_ORGANIZATION_ROLE ( 'design_owner' ) ;
#96 = ADVANCED_BREP_SHAPE_REPRESENTATION ( '326699', ( #179, #180, #39 ), #13 ) ;
#97 = ORIENTED_EDGE ( 'NONE', *, *, #104, .T. ) ;
#98 = LOCAL_TIME ( 11, 26, 24.00000000000000000, #113 ) ;
#99 = DATE_AND_TIME ( #191, #55 ) ;
#100 = DIRECTION ( 'NONE',  ( 0.0000000000000000000, 1.000000000000000000, 0.0000000000000000000 ) ) ;
#101 = CONICAL_SURFACE ( 'NONE', #200, 1.500000000000000000, 0.7853981633974453924 ) ;
#102 = CARTESIAN_POINT ( 'NONE',  ( -1.710332578358786442E-32, 5.999039130647440866E-34, -4.898587196589421241E-18 ) ) ;
#103 = DIRECTION ( 'NONE',  ( 3.491481338843133355E-15, -1.224646799147353207E-16, 1.000000000000000000 ) ) ;
#104 = EDGE_CURVE ( 'NONE', #181, #181, #73, .T. ) ;
#105 = SECURITY_CLASSIFICATION ( '', '', #195 ) ;
#106 = EDGE_CURVE ( 'NONE', #178, #178, #60, .T. ) ;
#107 = PERSON_AND_ORGANIZATION ( #165, #162 ) ;
#108 = AXIS2_PLACEMENT_3D ( 'NONE', #102, #134, #10 ) ;
#109 = CYLINDRICAL_SURFACE ( 'NONE', #170, 1.500000000000000000 ) ;
#110 = COORDINATED_UNIVERSAL_TIME_OFFSET ( 1, 0, .AHEAD. ) ;
#111 = FACE_OUTER_BOUND ( 'NONE', #6, .T. ) ;
#112 = DATE_AND_TIME ( #80, #98 ) ;
#113 = COORDINATED_UNIVERSAL_TIME_OFFSET ( 1, 0, .AHEAD. ) ;
#114 = PLANE ( 'NONE',  #23 ) ;
#115 = PERSON_AND_ORGANIZATION ( #165, #162 ) ;
#116 = DIRECTION ( 'NONE',  ( 0.0000000000000000000, 1.000000000000000000, 0.0000000000000000000 ) ) ;
#117 = CARTESIAN_POINT ( 'NONE',  ( 1.326762908760390423E-13, 1.199999999999995515, 38.00000000000000000 ) ) ;
#118 = CARTESIAN_POINT ( 'NONE',  ( 8.829237685930301589E-15, -3.096879697076772673E-16, 2.528794179050597446 ) ) ;
#119 = ADVANCED_FACE ( 'NONE', ( #135 ), #89, .F. ) ;
#120 = PRODUCT_DEFINITION_SHAPE ( 'NONE', 'NONE',  #56 ) ;
#121 = LOCAL_TIME ( 11, 26, 24.00000000000000000, #66 ) ;
#122 = ADVANCED_FACE ( 'NONE', ( #152, #154 ), #101, .T. ) ;
#123 = PERSON_AND_ORGANIZATION ( #165, #162 ) ;
#124 = COORDINATED_UNIVERSAL_TIME_OFFSET ( 1, 0, .AHEAD. ) ;
#125 = AXIS2_PLACEMENT_3D ( 'NONE', #160, #190, #52 ) ;
#126 = CARTESIAN_POINT ( 'NONE',  ( 0.0000000000000000000, 0.0000000000000000000, 0.0000000000000000000 ) ) ;
#127 = CALENDAR_DATE ( 2021, 22, 11 ) ;
#128 = FACE_OUTER_BOUND ( 'NONE', #20, .T. ) ;
#129 = PLANE ( 'NONE',  #43 ) ;
#130 = DATE_AND_TIME ( #189, #14 ) ;
#131 = CC_DESIGN_APPROVAL ( #133, ( #196 ) ) ;
#132 = ORIENTED_EDGE ( 'NONE', *, *, #2, .T. ) ;
#133 = APPROVAL ( #163, 'UNSPECIFIED' ) ;
#134 = DIRECTION ( 'NONE',  ( -3.491481338843133355E-15, 1.224646799147353207E-16, -1.000000000000000000 ) ) ;
#135 = FACE_OUTER_BOUND ( 'NONE', #32, .T. ) ;
#136 = DIRECTION ( 'NONE',  ( 0.0000000000000000000, 1.000000000000000000, 0.0000000000000000000 ) ) ;
#137 = AXIS2_PLACEMENT_3D ( 'NONE', #118, #88, #136 ) ;
#138 = AXIS2_PLACEMENT_3D ( 'NONE', #31, #8, #167 ) ;
#139 = AXIS2_PLACEMENT_3D ( 'NONE', #25, #24, #58 ) ;
#140 = APPROVAL_PERSON_ORGANIZATION ( #107, #155, #159 ) ;
#141 = DATE_TIME_ROLE ( 'classification_date' ) ;
#142 = APPLICATION_PROTOCOL_DEFINITION ( 'international standard', 'config_control_design', 1994, #176 ) ;
#143 = DATE_AND_TIME ( #84, #121 ) ;
#144 = AXIS2_PLACEMENT_3D ( 'NONE', #54, #188, #48 ) ;
#145 = ORIENTED_EDGE ( 'NONE', *, *, #203, .F. ) ;
#146 = APPROVAL_ROLE ( '' ) ;
#147 = EDGE_LOOP ( 'NONE', ( #161 ) ) ;
#148 = APPROVAL_ROLE ( '' ) ;
#149 = DIRECTION ( 'NONE',  ( 4.275831445896958607E-31, 1.000000000000000000, 1.224646799147353207E-16 ) ) ;
#150 = CC_DESIGN_PERSON_AND_ORGANIZATION_ASSIGNMENT ( #115, #175, ( #56 ) ) ;
#151 = EDGE_LOOP ( 'NONE', ( #97 ) ) ;
#152 = FACE_BOUND ( 'NONE', #19, .T. ) ;
#153 =( LENGTH_UNIT ( ) NAMED_UNIT ( * ) SI_UNIT ( .MILLI., .METRE. ) );
#154 = FACE_OUTER_BOUND ( 'NONE', #67, .T. ) ;
#155 = APPROVAL ( #172, 'UNSPECIFIED' ) ;
#156 = CIRCLE ( 'NONE', #144, 1.200000000000000178 ) ;
#157 = PERSON_AND_ORGANIZATION_ROLE ( 'creator' ) ;
#158 = APPROVAL_PERSON_ORGANIZATION ( #1, #133, #148 ) ;
#159 = APPROVAL_ROLE ( '' ) ;
#160 = CARTESIAN_POINT ( 'NONE',  ( 8.829237685930301589E-15, -7.311264380520946195E-16, 2.528794179050597446 ) ) ;
#161 = ORIENTED_EDGE ( 'NONE', *, *, #193, .F. ) ;
#162 = ORGANIZATION ( 'UNSPECIFIED', 'UNSPECIFIED', '' ) ;
#163 = APPROVAL_STATUS ( 'not_yet_approved' ) ;
#164 = ADVANCED_FACE ( 'NONE', ( #38, #182 ), #28, .T. ) ;
#165 = PERSON ( 'UNSPECIFIED', 'UNSPECIFIED', 'UNSPECIFIED', ('UNSPECIFIED'), ('UNSPECIFIED'), ('UNSPECIFIED') ) ;
#166 = VERTEX_POINT ( 'NONE', #117 ) ;
#167 = DIRECTION ( 'NONE',  ( 0.0000000000000000000, 1.000000000000000000, 0.0000000000000000000 ) ) ;
#168 = CC_DESIGN_SECURITY_CLASSIFICATION ( #105, ( #196 ) ) ;
#169 = CC_DESIGN_PERSON_AND_ORGANIZATION_ASSIGNMENT ( #36, #157, ( #196 ) ) ;
#170 = AXIS2_PLACEMENT_3D ( 'NONE', #126, #30, #192 ) ;
#171 = CIRCLE ( 'NONE', #108, 0.04000000000000007022 ) ;
#172 = APPROVAL_STATUS ( 'not_yet_approved' ) ;
#173 = DIRECTION ( 'NONE',  ( 3.491481338843133355E-15, -1.224646799147353207E-16, 1.000000000000000000 ) ) ;
#174 = SHAPE_DEFINITION_REPRESENTATION ( #120, #96 ) ;
#175 = PERSON_AND_ORGANIZATION_ROLE ( 'creator' ) ;
#176 = APPLICATION_CONTEXT ( 'configuration controlled 3d designs of mechanical parts and assemblies' ) ;
#177 = FACE_OUTER_BOUND ( 'NONE', #65, .T. ) ;
#178 = VERTEX_POINT ( 'NONE', #201 ) ;
#179 = MANIFOLD_SOLID_BREP ( 'Corps-Déplacer/Copier1[1]', #183 ) ;
#180 = MANIFOLD_SOLID_BREP ( 'Corps-Déplacer/Copier1[2]', #187 ) ;
#181 = VERTEX_POINT ( 'NONE', #11 ) ;
#182 = FACE_OUTER_BOUND ( 'NONE', #151, .T. ) ;
#183 = CLOSED_SHELL ( 'NONE', ( #71, #16, #122, #78 ) ) ;
#184 = CC_DESIGN_APPROVAL ( #155, ( #105 ) ) ;
#185 = APPROVAL ( #46, 'UNSPECIFIED' ) ;
#186 = PRODUCT ( '326699', '326699', '', ( #53 ) ) ;
#187 = CLOSED_SHELL ( 'NONE', ( #119, #164, #90 ) ) ;
#188 = DIRECTION ( 'NONE',  ( -3.491481338843133355E-15, 1.224646799147353207E-16, -1.000000000000000000 ) ) ;
#189 = CALENDAR_DATE ( 2021, 22, 11 ) ;
#190 = DIRECTION ( 'NONE',  ( 3.491481338843133355E-15, -1.224646799147353207E-16, 1.000000000000000000 ) ) ;
#191 = CALENDAR_DATE ( 2021, 22, 11 ) ;
#192 = DIRECTION ( 'NONE',  ( 4.275831445896959482E-31, 1.000000000000000000, 1.224646799147353207E-16 ) ) ;
#193 = EDGE_CURVE ( 'NONE', #40, #40, #171, .T. ) ;
#194 = ORIENTED_EDGE ( 'NONE', *, *, #106, .F. ) ;
#195 = SECURITY_CLASSIFICATION_LEVEL ( 'unclassified' ) ;
#196 = PRODUCT_DEFINITION_FORMATION_WITH_SPECIFIED_SOURCE ( 'ANY', '', #186, .NOT_KNOWN. ) ;
#197 = FACE_OUTER_BOUND ( 'NONE', #17, .T. ) ;
#198 = CARTESIAN_POINT ( 'NONE',  ( 8.829237685930301589E-15, -3.096879697076772673E-16, 2.528794179050597446 ) ) ;
#199 = CARTESIAN_POINT ( 'NONE',  ( 1.316288464743861212E-13, -4.616918432785521081E-15, 37.69999999999999574 ) ) ;
#200 = AXIS2_PLACEMENT_3D ( 'NONE', #199, #75, #116 ) ;
#201 = CARTESIAN_POINT ( 'NONE',  ( 8.829237685930301589E-15, 1.499999999999999778, 2.528794179050597446 ) ) ;
#202 = CARTESIAN_POINT ( 'NONE',  ( 1.316288464743861212E-13, 1.499999999999995559, 37.69999999999999574 ) ) ;
#203 = EDGE_CURVE ( 'NONE', #42, #42, #47, .T. ) ;
ENDSEC;
END-ISO-10303-21;
