ISO-10303-21;
HEADER;
FILE_DESCRIPTION (( 'STEP AP203' ),
    '1' );
FILE_NAME ('326698.step',
    '2021-11-22T10:26:23',
    ( '' ),
    ( '' ),
    'SwSTEP 2.0',
    'SolidWorks 2019',
    '' );
FILE_SCHEMA (( 'CONFIG_CONTROL_DESIGN' ));
ENDSEC;

DATA;
#1 = APPROVAL_PERSON_ORGANIZATION ( #167, #68, #72 ) ;
#2 = CARTESIAN_POINT ( 'NONE',  ( -1.496541006063940395E-32, 5.249159239316519417E-34, -4.286263797015749845E-18 ) ) ;
#3 = DIRECTION ( 'NONE',  ( -3.491481338843133355E-15, 1.224646799147353207E-16, -1.000000000000000000 ) ) ;
#4 = EDGE_LOOP ( 'NONE', ( #154 ) ) ;
#5 = FACE_OUTER_BOUND ( 'NONE', #7, .T. ) ;
#6 = CC_DESIGN_PERSON_AND_ORGANIZATION_ASSIGNMENT ( #10, #181, ( #160 ) ) ;
#7 = EDGE_LOOP ( 'NONE', ( #142 ) ) ;
#8 = AXIS2_PLACEMENT_3D ( 'NONE', #123, #59, #18 ) ;
#9 = AXIS2_PLACEMENT_3D ( 'NONE', #144, #136, #86 ) ;
#10 = PERSON_AND_ORGANIZATION ( #104, #168 ) ;
#11 = APPROVAL_ROLE ( '' ) ;
#12 = DIRECTION ( 'NONE',  ( 3.491481338843133355E-15, -1.224646799147353207E-16, 1.000000000000000000 ) ) ;
#13 = CLOSED_SHELL ( 'NONE', ( #28, #139, #197, #34 ) ) ;
#14 = LOCAL_TIME ( 11, 26, 23.00000000000000000, #158 ) ;
#15 = CC_DESIGN_PERSON_AND_ORGANIZATION_ASSIGNMENT ( #202, #27, ( #92 ) ) ;
#16 = DATE_TIME_ROLE ( 'classification_date' ) ;
#17 = DIRECTION ( 'NONE',  ( 4.275831445896958607E-31, 1.000000000000000000, 1.224646799147353207E-16 ) ) ;
#18 = DIRECTION ( 'NONE',  ( -4.275831445896958607E-31, -1.000000000000000000, -1.224646799147353207E-16 ) ) ;
#19 = PRODUCT_RELATED_PRODUCT_CATEGORY ( 'detail', '', ( #160 ) ) ;
#20 = EDGE_LOOP ( 'NONE', ( #157 ) ) ;
#21 = ORIENTED_EDGE ( 'NONE', *, *, #112, .F. ) ;
#22 = MECHANICAL_CONTEXT ( 'NONE', #39, 'mechanical' ) ;
#23 = FACE_OUTER_BOUND ( 'NONE', #4, .T. ) ;
#24 =( NAMED_UNIT ( * ) SI_UNIT ( $, .STERADIAN. ) SOLID_ANGLE_UNIT ( ) );
#25 =( NAMED_UNIT ( * ) PLANE_ANGLE_UNIT ( ) SI_UNIT ( $, .RADIAN. ) );
#26 = SECURITY_CLASSIFICATION_LEVEL ( 'unclassified' ) ;
#27 = PERSON_AND_ORGANIZATION_ROLE ( 'creator' ) ;
#28 = ADVANCED_FACE ( 'NONE', ( #78 ), #128, .F. ) ;
#29 = AXIS2_PLACEMENT_3D ( 'NONE', #152, #35, #81 ) ;
#30 = DIRECTION ( 'NONE',  ( 3.491481338843133355E-15, -1.224646799147353207E-16, 1.000000000000000000 ) ) ;
#31 = CC_DESIGN_APPROVAL ( #68, ( #184 ) ) ;
#32 = CARTESIAN_POINT ( 'NONE',  ( 8.859474801293076632E-15, -7.336302957166565627E-16, 2.537454433088441430 ) ) ;
#33 = DIRECTION ( 'NONE',  ( 3.491481338843133355E-15, -1.224646799147353207E-16, 1.000000000000000000 ) ) ;
#34 = ADVANCED_FACE ( 'NONE', ( #47 ), #111, .F. ) ;
#35 = DIRECTION ( 'NONE',  ( -3.491481338843133355E-15, 1.224646799147353207E-16, -1.000000000000000000 ) ) ;
#36 = CARTESIAN_POINT ( 'NONE',  ( 1.326762908760390423E-13, 8.998558695971078593E-33, 38.00000000000000000 ) ) ;
#37 = APPROVAL_STATUS ( 'not_yet_approved' ) ;
#38 = VERTEX_POINT ( 'NONE', #88 ) ;
#39 = APPLICATION_CONTEXT ( 'configuration controlled 3d designs of mechanical parts and assemblies' ) ;
#40 = CARTESIAN_POINT ( 'NONE',  ( 0.0000000000000000000, 0.0000000000000000000, 0.0000000000000000000 ) ) ;
#41 = EDGE_CURVE ( 'NONE', #99, #99, #121, .T. ) ;
#42 =( LENGTH_UNIT ( ) NAMED_UNIT ( * ) SI_UNIT ( .MILLI., .METRE. ) );
#43 = AXIS2_PLACEMENT_3D ( 'NONE', #64, #187, #130 ) ;
#44 = PERSON_AND_ORGANIZATION_ROLE ( 'classification_officer' ) ;
#45 = FACE_BOUND ( 'NONE', #109, .T. ) ;
#46 = CARTESIAN_POINT ( 'NONE',  ( 1.316288464743861212E-13, -4.616918432785521081E-15, 37.69999999999999574 ) ) ;
#47 = FACE_OUTER_BOUND ( 'NONE', #176, .T. ) ;
#48 = EDGE_CURVE ( 'NONE', #133, #133, #75, .T. ) ;
#49 = DIRECTION ( 'NONE',  ( 0.0000000000000000000, 1.000000000000000000, 0.0000000000000000000 ) ) ;
#50 = DATE_AND_TIME ( #177, #80 ) ;
#51 = PERSON_AND_ORGANIZATION ( #104, #168 ) ;
#52 = CC_DESIGN_DATE_AND_TIME_ASSIGNMENT ( #169, #16, ( #184 ) ) ;
#53 = FACE_BOUND ( 'NONE', #138, .T. ) ;
#54 = COORDINATED_UNIVERSAL_TIME_OFFSET ( 1, 0, .AHEAD. ) ;
#55 = SHAPE_DEFINITION_REPRESENTATION ( #201, #65 ) ;
#56 = PERSON_AND_ORGANIZATION ( #104, #168 ) ;
#57 =( GEOMETRIC_REPRESENTATION_CONTEXT ( 3 ) GLOBAL_UNCERTAINTY_ASSIGNED_CONTEXT ( ( #151 ) ) GLOBAL_UNIT_ASSIGNED_CONTEXT ( ( #42, #25, #24 ) ) REPRESENTATION_CONTEXT ( 'NONE', 'WORKASPACE' ) );
#58 = MANIFOLD_SOLID_BREP ( 'Corps-Déplacer/Copier1[2]', #106 ) ;
#59 = DIRECTION ( 'NONE',  ( 3.491481338843133355E-15, -1.224646799147353207E-16, 1.000000000000000000 ) ) ;
#60 = APPROVAL ( #37, 'UNSPECIFIED' ) ;
#61 = DIRECTION ( 'NONE',  ( -4.275831445896958607E-31, -1.000000000000000000, -1.224646799147353207E-16 ) ) ;
#62 = CONICAL_SURFACE ( 'NONE', #9, 1.500000000000000000, 0.7853981633974453924 ) ;
#63 = DIRECTION ( 'NONE',  ( -3.491481338843133355E-15, 1.224646799147353207E-16, -1.000000000000000000 ) ) ;
#64 = CARTESIAN_POINT ( 'NONE',  ( 0.0000000000000000000, 0.0000000000000000000, 0.0000000000000000000 ) ) ;
#65 = ADVANCED_BREP_SHAPE_REPRESENTATION ( '326698', ( #131, #58, #135 ), #57 ) ;
#66 = CARTESIAN_POINT ( 'NONE',  ( 8.859474801293076632E-15, -3.107485449464022129E-16, 2.537454433088441874 ) ) ;
#67 = DIRECTION ( 'NONE',  ( 0.0000000000000000000, -1.000000000000000000, 0.0000000000000000000 ) ) ;
#68 = APPROVAL ( #118, 'UNSPECIFIED' ) ;
#69 = CARTESIAN_POINT ( 'NONE',  ( 1.316288464743861212E-13, 1.499999999999995559, 37.69999999999999574 ) ) ;
#70 = CARTESIAN_POINT ( 'NONE',  ( 1.326762908760390423E-13, 1.199999999999995515, 38.00000000000000000 ) ) ;
#71 = APPROVAL_PERSON_ORGANIZATION ( #51, #105, #179 ) ;
#72 = APPROVAL_ROLE ( '' ) ;
#73 = EDGE_CURVE ( 'NONE', #196, #196, #74, .T. ) ;
#74 = CIRCLE ( 'NONE', #29, 1.500000000000000000 ) ;
#75 = CIRCLE ( 'NONE', #163, 1.200000000000000178 ) ;
#76 = LOCAL_TIME ( 11, 26, 23.00000000000000000, #54 ) ;
#77 = CARTESIAN_POINT ( 'NONE',  ( 8.859474801293076632E-15, -3.107485449464022129E-16, 2.537454433088441874 ) ) ;
#78 = FACE_OUTER_BOUND ( 'NONE', #140, .T. ) ;
#79 = ORIENTED_EDGE ( 'NONE', *, *, #73, .T. ) ;
#80 = LOCAL_TIME ( 11, 26, 23.00000000000000000, #159 ) ;
#81 = DIRECTION ( 'NONE',  ( 0.0000000000000000000, 1.000000000000000000, 0.0000000000000000000 ) ) ;
#82 = EDGE_LOOP ( 'NONE', ( #97 ) ) ;
#83 = LOCAL_TIME ( 11, 26, 23.00000000000000000, #183 ) ;
#84 = DATE_AND_TIME ( #147, #14 ) ;
#85 = CC_DESIGN_DATE_AND_TIME_ASSIGNMENT ( #84, #198, ( #170 ) ) ;
#86 = DIRECTION ( 'NONE',  ( 0.0000000000000000000, 1.000000000000000000, 0.0000000000000000000 ) ) ;
#87 = PERSON_AND_ORGANIZATION_ROLE ( 'creator' ) ;
#88 = CARTESIAN_POINT ( 'NONE',  ( 8.859474801293076632E-15, 1.499999999999999778, 2.537454433088441874 ) ) ;
#89 = DATE_AND_TIME ( #185, #190 ) ;
#90 = COORDINATED_UNIVERSAL_TIME_OFFSET ( 1, 0, .AHEAD. ) ;
#91 = CC_DESIGN_PERSON_AND_ORGANIZATION_ASSIGNMENT ( #200, #119, ( #92 ) ) ;
#92 = PRODUCT_DEFINITION_FORMATION_WITH_SPECIFIED_SOURCE ( 'ANY', '', #160, .NOT_KNOWN. ) ;
#93 = DESIGN_CONTEXT ( 'detailed design', #145, 'design' ) ;
#94 = EDGE_LOOP ( 'NONE', ( #96 ) ) ;
#95 = DIRECTION ( 'NONE',  ( -3.491481338843133355E-15, 1.224646799147353207E-16, -1.000000000000000000 ) ) ;
#96 = ORIENTED_EDGE ( 'NONE', *, *, #112, .T. ) ;
#97 = ORIENTED_EDGE ( 'NONE', *, *, #146, .F. ) ;
#98 = DIRECTION ( 'NONE',  ( -4.275831445896958607E-31, -1.000000000000000000, -1.224646799147353207E-16 ) ) ;
#99 = VERTEX_POINT ( 'NONE', #69 ) ;
#100 = CARTESIAN_POINT ( 'NONE',  ( 8.859474801293076632E-15, 1.499999999999999778, 2.537454433088441874 ) ) ;
#101 = AXIS2_PLACEMENT_3D ( 'NONE', #2, #108, #141 ) ;
#102 = CC_DESIGN_SECURITY_CLASSIFICATION ( #184, ( #92 ) ) ;
#103 = APPROVAL_DATE_TIME ( #50, #60 ) ;
#104 = PERSON ( 'UNSPECIFIED', 'UNSPECIFIED', 'UNSPECIFIED', ('UNSPECIFIED'), ('UNSPECIFIED'), ('UNSPECIFIED') ) ;
#105 = APPROVAL ( #114, 'UNSPECIFIED' ) ;
#106 = CLOSED_SHELL ( 'NONE', ( #153, #161, #129 ) ) ;
#107 = AXIS2_PLACEMENT_3D ( 'NONE', #77, #95, #193 ) ;
#108 = DIRECTION ( 'NONE',  ( -3.491481338843133355E-15, 1.224646799147353207E-16, -1.000000000000000000 ) ) ;
#109 = EDGE_LOOP ( 'NONE', ( #21 ) ) ;
#110 = PLANE ( 'NONE',  #172 ) ;
#111 = PLANE ( 'NONE',  #115 ) ;
#112 = EDGE_CURVE ( 'NONE', #117, #117, #189, .T. ) ;
#113 = FACE_OUTER_BOUND ( 'NONE', #94, .T. ) ;
#114 = APPROVAL_STATUS ( 'not_yet_approved' ) ;
#115 = AXIS2_PLACEMENT_3D ( 'NONE', #36, #63, #17 ) ;
#116 = AXIS2_PLACEMENT_3D ( 'NONE', #66, #12, #67 ) ;
#117 = VERTEX_POINT ( 'NONE', #134 ) ;
#118 = APPROVAL_STATUS ( 'not_yet_approved' ) ;
#119 = PERSON_AND_ORGANIZATION_ROLE ( 'design_supplier' ) ;
#120 = CC_DESIGN_PERSON_AND_ORGANIZATION_ASSIGNMENT ( #162, #87, ( #170 ) ) ;
#121 = CIRCLE ( 'NONE', #165, 1.500000000000000000 ) ;
#122 = CALENDAR_DATE ( 2021, 22, 11 ) ;
#123 = CARTESIAN_POINT ( 'NONE',  ( 8.859474801293076632E-15, -7.336302957166565627E-16, 2.537454433088441430 ) ) ;
#124 = DIRECTION ( 'NONE',  ( -3.491481338843133355E-15, 1.224646799147353207E-16, -1.000000000000000000 ) ) ;
#125 = CIRCLE ( 'NONE', #107, 1.500000000000000000 ) ;
#126 = APPROVAL_PERSON_ORGANIZATION ( #195, #60, #11 ) ;
#127 = CYLINDRICAL_SURFACE ( 'NONE', #43, 1.500000000000000000 ) ;
#128 = PLANE ( 'NONE',  #8 ) ;
#129 = ADVANCED_FACE ( 'NONE', ( #150 ), #137, .T. ) ;
#130 = DIRECTION ( 'NONE',  ( 4.275831445896959482E-31, 1.000000000000000000, 1.224646799147353207E-16 ) ) ;
#131 = MANIFOLD_SOLID_BREP ( 'Corps-Déplacer/Copier1[1]', #13 ) ;
#132 = APPLICATION_PROTOCOL_DEFINITION ( 'international standard', 'config_control_design', 1994, #145 ) ;
#133 = VERTEX_POINT ( 'NONE', #70 ) ;
#134 = CARTESIAN_POINT ( 'NONE',  ( 0.0000000000000000000, 0.03500000000000011435, 0.0000000000000000000 ) ) ;
#135 = AXIS2_PLACEMENT_3D ( 'NONE', #40, #164, #148 ) ;
#136 = DIRECTION ( 'NONE',  ( -3.491481338843133355E-15, 1.224646799147353207E-16, -1.000000000000000000 ) ) ;
#137 = PLANE ( 'NONE',  #194 ) ;
#138 = EDGE_LOOP ( 'NONE', ( #171 ) ) ;
#139 = ADVANCED_FACE ( 'NONE', ( #5, #191 ), #127, .T. ) ;
#140 = EDGE_LOOP ( 'NONE', ( #79 ) ) ;
#141 = DIRECTION ( 'NONE',  ( 4.275831445896958607E-31, 1.000000000000000000, 1.224646799147353207E-16 ) ) ;
#142 = ORIENTED_EDGE ( 'NONE', *, *, #41, .T. ) ;
#143 = APPLICATION_PROTOCOL_DEFINITION ( 'international standard', 'config_control_design', 1994, #39 ) ;
#144 = CARTESIAN_POINT ( 'NONE',  ( 1.316288464743861212E-13, -4.616918432785521081E-15, 37.69999999999999574 ) ) ;
#145 = APPLICATION_CONTEXT ( 'configuration controlled 3d designs of mechanical parts and assemblies' ) ;
#146 = EDGE_CURVE ( 'NONE', #38, #38, #125, .T. ) ;
#147 = CALENDAR_DATE ( 2021, 22, 11 ) ;
#148 = DIRECTION ( 'NONE',  ( 1.000000000000000000, 0.0000000000000000000, 0.0000000000000000000 ) ) ;
#149 = DATE_AND_TIME ( #122, #83 ) ;
#150 = FACE_OUTER_BOUND ( 'NONE', #82, .T. ) ;
#151 = UNCERTAINTY_MEASURE_WITH_UNIT (LENGTH_MEASURE( 1.000000000000000082E-05 ), #42, 'distance_accuracy_value', 'NONE');
#152 = CARTESIAN_POINT ( 'NONE',  ( 8.859474801293076632E-15, -3.107485449464022129E-16, 2.537454433088441874 ) ) ;
#153 = ADVANCED_FACE ( 'NONE', ( #113 ), #110, .F. ) ;
#154 = ORIENTED_EDGE ( 'NONE', *, *, #146, .T. ) ;
#155 = CC_DESIGN_APPROVAL ( #60, ( #170 ) ) ;
#156 = ORIENTED_EDGE ( 'NONE', *, *, #48, .F. ) ;
#157 = ORIENTED_EDGE ( 'NONE', *, *, #73, .F. ) ;
#158 = COORDINATED_UNIVERSAL_TIME_OFFSET ( 1, 0, .AHEAD. ) ;
#159 = COORDINATED_UNIVERSAL_TIME_OFFSET ( 1, 0, .AHEAD. ) ;
#160 = PRODUCT ( '326698', '326698', '', ( #22 ) ) ;
#161 = ADVANCED_FACE ( 'NONE', ( #45, #23 ), #178, .T. ) ;
#162 = PERSON_AND_ORGANIZATION ( #104, #168 ) ;
#163 = AXIS2_PLACEMENT_3D ( 'NONE', #173, #3, #49 ) ;
#164 = DIRECTION ( 'NONE',  ( 0.0000000000000000000, 0.0000000000000000000, 1.000000000000000000 ) ) ;
#165 = AXIS2_PLACEMENT_3D ( 'NONE', #46, #124, #192 ) ;
#166 = CALENDAR_DATE ( 2021, 22, 11 ) ;
#167 = PERSON_AND_ORGANIZATION ( #104, #168 ) ;
#168 = ORGANIZATION ( 'UNSPECIFIED', 'UNSPECIFIED', '' ) ;
#169 = DATE_AND_TIME ( #166, #76 ) ;
#170 = PRODUCT_DEFINITION ( 'UNKNOWN', '', #92, #93 ) ;
#171 = ORIENTED_EDGE ( 'NONE', *, *, #48, .T. ) ;
#172 = AXIS2_PLACEMENT_3D ( 'NONE', #174, #33, #98 ) ;
#173 = CARTESIAN_POINT ( 'NONE',  ( 1.326762908760390423E-13, -4.653657836759941941E-15, 38.00000000000000000 ) ) ;
#174 = CARTESIAN_POINT ( 'NONE',  ( -7.482705030319701975E-33, 2.624579619658259709E-34, -2.143131898507874923E-18 ) ) ;
#175 = ORIENTED_EDGE ( 'NONE', *, *, #41, .F. ) ;
#176 = EDGE_LOOP ( 'NONE', ( #156 ) ) ;
#177 = CALENDAR_DATE ( 2021, 22, 11 ) ;
#178 = CONICAL_SURFACE ( 'NONE', #116, 1.500000000000000000, 0.5235987755982925984 ) ;
#179 = APPROVAL_ROLE ( '' ) ;
#180 = CC_DESIGN_PERSON_AND_ORGANIZATION_ASSIGNMENT ( #56, #44, ( #184 ) ) ;
#181 = PERSON_AND_ORGANIZATION_ROLE ( 'design_owner' ) ;
#182 = FACE_OUTER_BOUND ( 'NONE', #188, .T. ) ;
#183 = COORDINATED_UNIVERSAL_TIME_OFFSET ( 1, 0, .AHEAD. ) ;
#184 = SECURITY_CLASSIFICATION ( '', '', #26 ) ;
#185 = CALENDAR_DATE ( 2021, 22, 11 ) ;
#186 = APPROVAL_DATE_TIME ( #149, #105 ) ;
#187 = DIRECTION ( 'NONE',  ( -3.491481338843133355E-15, 1.224646799147353207E-16, -1.000000000000000000 ) ) ;
#188 = EDGE_LOOP ( 'NONE', ( #175 ) ) ;
#189 = CIRCLE ( 'NONE', #101, 0.03500000000000011435 ) ;
#190 = LOCAL_TIME ( 11, 26, 23.00000000000000000, #90 ) ;
#191 = FACE_OUTER_BOUND ( 'NONE', #20, .T. ) ;
#192 = DIRECTION ( 'NONE',  ( 0.0000000000000000000, 1.000000000000000000, 0.0000000000000000000 ) ) ;
#193 = DIRECTION ( 'NONE',  ( 0.0000000000000000000, 1.000000000000000000, 0.0000000000000000000 ) ) ;
#194 = AXIS2_PLACEMENT_3D ( 'NONE', #32, #30, #61 ) ;
#195 = PERSON_AND_ORGANIZATION ( #104, #168 ) ;
#196 = VERTEX_POINT ( 'NONE', #100 ) ;
#197 = ADVANCED_FACE ( 'NONE', ( #53, #182 ), #62, .T. ) ;
#198 = DATE_TIME_ROLE ( 'creation_date' ) ;
#199 = CC_DESIGN_APPROVAL ( #105, ( #92 ) ) ;
#200 = PERSON_AND_ORGANIZATION ( #104, #168 ) ;
#201 = PRODUCT_DEFINITION_SHAPE ( 'NONE', 'NONE',  #170 ) ;
#202 = PERSON_AND_ORGANIZATION ( #104, #168 ) ;
#203 = APPROVAL_DATE_TIME ( #89, #68 ) ;
ENDSEC;
END-ISO-10303-21;
