ISO-10303-21;
HEADER;
FILE_DESCRIPTION (( 'STEP AP203' ),
    '1' );
FILE_NAME ('326697.step',
    '2021-11-22T10:26:23',
    ( '' ),
    ( '' ),
    'SwSTEP 2.0',
    'SolidWorks 2019',
    '' );
FILE_SCHEMA (( 'CONFIG_CONTROL_DESIGN' ));
ENDSEC;

DATA;
#1 = FACE_OUTER_BOUND ( 'NONE', #43, .T. ) ;
#2 = DATE_AND_TIME ( #176, #151 ) ;
#3 = CONICAL_SURFACE ( 'NONE', #29, 1.500000000000000000, 0.7853981633974453924 ) ;
#4 = DIRECTION ( 'NONE',  ( 0.0000000000000000000, 0.0000000000000000000, 1.000000000000000000 ) ) ;
#5 = APPLICATION_PROTOCOL_DEFINITION ( 'international standard', 'config_control_design', 1994, #182 ) ;
#6 = ORGANIZATION ( 'UNSPECIFIED', 'UNSPECIFIED', '' ) ;
#7 = ADVANCED_BREP_SHAPE_REPRESENTATION ( '326697', ( #50, #47, #131 ), #122 ) ;
#8 = CARTESIAN_POINT ( 'NONE',  ( 1.326762908760390423E-13, 1.199999999999995515, 38.00000000000000000 ) ) ;
#9 = EDGE_LOOP ( 'NONE', ( #75 ) ) ;
#10 = DIRECTION ( 'NONE',  ( 4.275831445896959482E-31, 1.000000000000000000, 1.224646799147353207E-16 ) ) ;
#11 = EDGE_LOOP ( 'NONE', ( #159 ) ) ;
#12 = DIRECTION ( 'NONE',  ( -4.275831445896958607E-31, -1.000000000000000000, -1.224646799147353207E-16 ) ) ;
#13 = DIRECTION ( 'NONE',  ( -3.491481338843133355E-15, 1.224646799147353207E-16, -1.000000000000000000 ) ) ;
#14 = PERSON_AND_ORGANIZATION ( #17, #6 ) ;
#15 = DIRECTION ( 'NONE',  ( -3.491481338843133355E-15, 1.224646799147353207E-16, -1.000000000000000000 ) ) ;
#16 = VERTEX_POINT ( 'NONE', #89 ) ;
#17 = PERSON ( 'UNSPECIFIED', 'UNSPECIFIED', 'UNSPECIFIED', ('UNSPECIFIED'), ('UNSPECIFIED'), ('UNSPECIFIED') ) ;
#18 = ADVANCED_FACE ( 'NONE', ( #106, #117 ), #33, .T. ) ;
#19 = AXIS2_PLACEMENT_3D ( 'NONE', #174, #15, #112 ) ;
#20 = APPROVAL ( #57, 'UNSPECIFIED' ) ;
#21 = CARTESIAN_POINT ( 'NONE',  ( -6.912694880243569027E-33, 2.424646972730942785E-34, -1.979874502933479697E-18 ) ) ;
#22 = PRODUCT_DEFINITION ( 'UNKNOWN', '', #187, #127 ) ;
#23 = COORDINATED_UNIVERSAL_TIME_OFFSET ( 1, 0, .AHEAD. ) ;
#24 = CIRCLE ( 'NONE', #183, 1.500000000000000000 ) ;
#25 = PLANE ( 'NONE',  #139 ) ;
#26 = EDGE_LOOP ( 'NONE', ( #45 ) ) ;
#27 = APPROVAL ( #140, 'UNSPECIFIED' ) ;
#28 = CALENDAR_DATE ( 2021, 22, 11 ) ;
#29 = AXIS2_PLACEMENT_3D ( 'NONE', #177, #74, #134 ) ;
#30 = PERSON_AND_ORGANIZATION ( #17, #6 ) ;
#31 = CARTESIAN_POINT ( 'NONE',  ( 1.316288464743861212E-13, -4.616918432785521081E-15, 37.69999999999999574 ) ) ;
#32 = EDGE_LOOP ( 'NONE', ( #69 ) ) ;
#33 = CYLINDRICAL_SURFACE ( 'NONE', #121, 1.500000000000000000 ) ;
#34 = DIRECTION ( 'NONE',  ( 3.491481338843133355E-15, -1.224646799147353207E-16, 1.000000000000000000 ) ) ;
#35 = LOCAL_TIME ( 11, 26, 23.00000000000000000, #63 ) ;
#36 = DIRECTION ( 'NONE',  ( 3.491481338843133355E-15, -1.224646799147353207E-16, 1.000000000000000000 ) ) ;
#37 = PLANE ( 'NONE',  #19 ) ;
#38 = AXIS2_PLACEMENT_3D ( 'NONE', #163, #51, #72 ) ;
#39 = DIRECTION ( 'NONE',  ( 4.275831445896959482E-31, 1.000000000000000000, 1.224646799147353207E-16 ) ) ;
#40 = EDGE_CURVE ( 'NONE', #46, #46, #24, .T. ) ;
#41 = DATE_AND_TIME ( #180, #59 ) ;
#42 = DIRECTION ( 'NONE',  ( 1.000000000000000000, 0.0000000000000000000, 0.0000000000000000000 ) ) ;
#43 = EDGE_LOOP ( 'NONE', ( #168 ) ) ;
#44 = FACE_BOUND ( 'NONE', #123, .T. ) ;
#45 = ORIENTED_EDGE ( 'NONE', *, *, #80, .F. ) ;
#46 = VERTEX_POINT ( 'NONE', #170 ) ;
#47 = MANIFOLD_SOLID_BREP ( 'Corps-Déplacer/Copier1[2]', #108 ) ;
#48 = AXIS2_PLACEMENT_3D ( 'NONE', #126, #34, #185 ) ;
#49 = CC_DESIGN_PERSON_AND_ORGANIZATION_ASSIGNMENT ( #109, #190, ( #187 ) ) ;
#50 = MANIFOLD_SOLID_BREP ( 'Corps-Déplacer/Copier1[1]', #161 ) ;
#51 = DIRECTION ( 'NONE',  ( 3.491481338843133355E-15, -1.224646799147353207E-16, 1.000000000000000000 ) ) ;
#52 = CIRCLE ( 'NONE', #138, 1.200000000000000178 ) ;
#53 = PERSON_AND_ORGANIZATION ( #17, #6 ) ;
#54 = PERSON_AND_ORGANIZATION ( #17, #6 ) ;
#55 = CC_DESIGN_APPROVAL ( #91, ( #187 ) ) ;
#56 = CC_DESIGN_PERSON_AND_ORGANIZATION_ASSIGNMENT ( #14, #144, ( #153 ) ) ;
#57 = APPROVAL_STATUS ( 'not_yet_approved' ) ;
#58 = FACE_OUTER_BOUND ( 'NONE', #32, .T. ) ;
#59 = LOCAL_TIME ( 11, 26, 23.00000000000000000, #114 ) ;
#60 = ADVANCED_FACE ( 'NONE', ( #58 ), #25, .T. ) ;
#61 = APPROVAL_ROLE ( '' ) ;
#62 = DIRECTION ( 'NONE',  ( -3.491481338843133355E-15, 1.224646799147353207E-16, -1.000000000000000000 ) ) ;
#63 = COORDINATED_UNIVERSAL_TIME_OFFSET ( 1, 0, .AHEAD. ) ;
#64 = CALENDAR_DATE ( 2021, 22, 11 ) ;
#65 = ORIENTED_EDGE ( 'NONE', *, *, #137, .F. ) ;
#66 = APPROVAL_PERSON_ORGANIZATION ( #196, #27, #61 ) ;
#67 = FACE_OUTER_BOUND ( 'NONE', #9, .T. ) ;
#68 = ORIENTED_EDGE ( 'NONE', *, *, #80, .T. ) ;
#69 = ORIENTED_EDGE ( 'NONE', *, *, #40, .F. ) ;
#70 = CONICAL_SURFACE ( 'NONE', #48, 1.500000000000000000, 0.5235987755982927094 ) ;
#71 = DATE_TIME_ROLE ( 'creation_date' ) ;
#72 = DIRECTION ( 'NONE',  ( -4.275831445896958607E-31, -1.000000000000000000, -1.224646799147353207E-16 ) ) ;
#73 = LOCAL_TIME ( 11, 26, 23.00000000000000000, #99 ) ;
#74 = DIRECTION ( 'NONE',  ( -3.491481338843133355E-15, 1.224646799147353207E-16, -1.000000000000000000 ) ) ;
#75 = ORIENTED_EDGE ( 'NONE', *, *, #40, .T. ) ;
#76 = EDGE_CURVE ( 'NONE', #107, #107, #52, .T. ) ;
#77 = APPLICATION_CONTEXT ( 'configuration controlled 3d designs of mechanical parts and assemblies' ) ;
#78 = PERSON_AND_ORGANIZATION_ROLE ( 'creator' ) ;
#79 = VERTEX_POINT ( 'NONE', #197 ) ;
#80 = EDGE_CURVE ( 'NONE', #79, #79, #172, .T. ) ;
#81 = CC_DESIGN_DATE_AND_TIME_ASSIGNMENT ( #2, #101, ( #153 ) ) ;
#82 = ORIENTED_EDGE ( 'NONE', *, *, #202, .F. ) ;
#83 = DIRECTION ( 'NONE',  ( 0.0000000000000000000, 1.000000000000000000, 0.0000000000000000000 ) ) ;
#84 = ADVANCED_FACE ( 'NONE', ( #110 ), #129, .F. ) ;
#85 = DATE_AND_TIME ( #64, #178 ) ;
#86 = DIRECTION ( 'NONE',  ( -3.491481338843133355E-15, 1.224646799147353207E-16, -1.000000000000000000 ) ) ;
#87 = CIRCLE ( 'NONE', #164, 0.03000000000000017236 ) ;
#88 = PRODUCT ( '326697', '326697', '', ( #115 ) ) ;
#89 = CARTESIAN_POINT ( 'NONE',  ( 1.316288464743861212E-13, 1.499999999999995559, 37.69999999999999574 ) ) ;
#90 = FACE_OUTER_BOUND ( 'NONE', #102, .T. ) ;
#91 = APPROVAL ( #128, 'UNSPECIFIED' ) ;
#92 = APPLICATION_PROTOCOL_DEFINITION ( 'international standard', 'config_control_design', 1994, #77 ) ;
#93 = EDGE_LOOP ( 'NONE', ( #96 ) ) ;
#94 = CC_DESIGN_APPROVAL ( #20, ( #153 ) ) ;
#95 = VERTEX_POINT ( 'NONE', #111 ) ;
#96 = ORIENTED_EDGE ( 'NONE', *, *, #202, .T. ) ;
#97 = EDGE_LOOP ( 'NONE', ( #184 ) ) ;
#98 = AXIS2_PLACEMENT_3D ( 'NONE', #203, #13, #133 ) ;
#99 = COORDINATED_UNIVERSAL_TIME_OFFSET ( 1, 0, .AHEAD. ) ;
#100 = APPROVAL_PERSON_ORGANIZATION ( #53, #91, #149 ) ;
#101 = DATE_TIME_ROLE ( 'classification_date' ) ;
#102 = EDGE_LOOP ( 'NONE', ( #82 ) ) ;
#103 = CC_DESIGN_PERSON_AND_ORGANIZATION_ASSIGNMENT ( #54, #145, ( #187 ) ) ;
#104 = CC_DESIGN_APPROVAL ( #27, ( #22 ) ) ;
#105 = APPROVAL_DATE_TIME ( #119, #27 ) ;
#106 = FACE_OUTER_BOUND ( 'NONE', #93, .T. ) ;
#107 = VERTEX_POINT ( 'NONE', #8 ) ;
#108 = CLOSED_SHELL ( 'NONE', ( #148, #152, #60 ) ) ;
#109 = PERSON_AND_ORGANIZATION ( #17, #6 ) ;
#110 = FACE_OUTER_BOUND ( 'NONE', #156, .T. ) ;
#111 = CARTESIAN_POINT ( 'NONE',  ( 5.914799457447381976E-33, 0.03000000000000017236, 1.694065894508600678E-18 ) ) ;
#112 = DIRECTION ( 'NONE',  ( 4.275831445896958607E-31, 1.000000000000000000, 1.224646799147353207E-16 ) ) ;
#113 = CC_DESIGN_SECURITY_CLASSIFICATION ( #153, ( #187 ) ) ;
#114 = COORDINATED_UNIVERSAL_TIME_OFFSET ( 1, 0, .AHEAD. ) ;
#115 = MECHANICAL_CONTEXT ( 'NONE', #182, 'mechanical' ) ;
#116 = ADVANCED_FACE ( 'NONE', ( #1 ), #37, .F. ) ;
#117 = FACE_OUTER_BOUND ( 'NONE', #26, .T. ) ;
#118 = AXIS2_PLACEMENT_3D ( 'NONE', #124, #36, #12 ) ;
#119 = DATE_AND_TIME ( #28, #35 ) ;
#120 = CC_DESIGN_DATE_AND_TIME_ASSIGNMENT ( #85, #71, ( #22 ) ) ;
#121 = AXIS2_PLACEMENT_3D ( 'NONE', #158, #86, #10 ) ;
#122 =( GEOMETRIC_REPRESENTATION_CONTEXT ( 3 ) GLOBAL_UNCERTAINTY_ASSIGNED_CONTEXT ( ( #201 ) ) GLOBAL_UNIT_ASSIGNED_CONTEXT ( ( #189, #147, #130 ) ) REPRESENTATION_CONTEXT ( 'NONE', 'WORKASPACE' ) );
#123 = EDGE_LOOP ( 'NONE', ( #65 ) ) ;
#124 = CARTESIAN_POINT ( 'NONE',  ( -3.456347440121784513E-33, 1.212323486365471393E-34, -9.899372514667398486E-19 ) ) ;
#125 = ADVANCED_FACE ( 'NONE', ( #165, #90 ), #3, .T. ) ;
#126 = CARTESIAN_POINT ( 'NONE',  ( 8.889711916655850098E-15, -3.118091201851270599E-16, 2.546114687126285858 ) ) ;
#127 = DESIGN_CONTEXT ( 'detailed design', #77, 'design' ) ;
#128 = APPROVAL_STATUS ( 'not_yet_approved' ) ;
#129 = PLANE ( 'NONE',  #38 ) ;
#130 =( NAMED_UNIT ( * ) SI_UNIT ( $, .STERADIAN. ) SOLID_ANGLE_UNIT ( ) );
#131 = AXIS2_PLACEMENT_3D ( 'NONE', #195, #4, #42 ) ;
#132 = APPROVAL_DATE_TIME ( #188, #91 ) ;
#133 = DIRECTION ( 'NONE',  ( 0.0000000000000000000, 1.000000000000000000, 0.0000000000000000000 ) ) ;
#134 = DIRECTION ( 'NONE',  ( 0.0000000000000000000, 1.000000000000000000, 0.0000000000000000000 ) ) ;
#135 = PERSON_AND_ORGANIZATION ( #17, #6 ) ;
#136 = CARTESIAN_POINT ( 'NONE',  ( 8.889711916655850098E-15, -3.118091201851270599E-16, 2.546114687126285858 ) ) ;
#137 = EDGE_CURVE ( 'NONE', #95, #95, #87, .T. ) ;
#138 = AXIS2_PLACEMENT_3D ( 'NONE', #146, #175, #150 ) ;
#139 = AXIS2_PLACEMENT_3D ( 'NONE', #141, #200, #160 ) ;
#140 = APPROVAL_STATUS ( 'not_yet_approved' ) ;
#141 = CARTESIAN_POINT ( 'NONE',  ( 8.889711916655850098E-15, -7.361341533812183087E-16, 2.546114687126285858 ) ) ;
#142 = FACE_OUTER_BOUND ( 'NONE', #97, .T. ) ;
#143 = AXIS2_PLACEMENT_3D ( 'NONE', #31, #62, #154 ) ;
#144 = PERSON_AND_ORGANIZATION_ROLE ( 'classification_officer' ) ;
#145 = PERSON_AND_ORGANIZATION_ROLE ( 'design_supplier' ) ;
#146 = CARTESIAN_POINT ( 'NONE',  ( 1.326762908760390423E-13, -4.653657836759941941E-15, 38.00000000000000000 ) ) ;
#147 =( NAMED_UNIT ( * ) PLANE_ANGLE_UNIT ( ) SI_UNIT ( $, .RADIAN. ) );
#148 = ADVANCED_FACE ( 'NONE', ( #142 ), #199, .F. ) ;
#149 = APPROVAL_ROLE ( '' ) ;
#150 = DIRECTION ( 'NONE',  ( 0.0000000000000000000, 1.000000000000000000, 0.0000000000000000000 ) ) ;
#151 = LOCAL_TIME ( 11, 26, 23.00000000000000000, #23 ) ;
#152 = ADVANCED_FACE ( 'NONE', ( #44, #67 ), #70, .T. ) ;
#153 = SECURITY_CLASSIFICATION ( '', '', #173 ) ;
#154 = DIRECTION ( 'NONE',  ( 0.0000000000000000000, 1.000000000000000000, 0.0000000000000000000 ) ) ;
#155 = COORDINATED_UNIVERSAL_TIME_OFFSET ( 1, 0, .AHEAD. ) ;
#156 = EDGE_LOOP ( 'NONE', ( #68 ) ) ;
#157 = PRODUCT_DEFINITION_SHAPE ( 'NONE', 'NONE',  #22 ) ;
#158 = CARTESIAN_POINT ( 'NONE',  ( 0.0000000000000000000, 0.0000000000000000000, 0.0000000000000000000 ) ) ;
#159 = ORIENTED_EDGE ( 'NONE', *, *, #76, .T. ) ;
#160 = DIRECTION ( 'NONE',  ( -4.275831445896958607E-31, -1.000000000000000000, -1.224646799147353207E-16 ) ) ;
#161 = CLOSED_SHELL ( 'NONE', ( #84, #18, #125, #116 ) ) ;
#162 = CALENDAR_DATE ( 2021, 22, 11 ) ;
#163 = CARTESIAN_POINT ( 'NONE',  ( 8.889711916655850098E-15, -7.361341533812183087E-16, 2.546114687126285858 ) ) ;
#164 = AXIS2_PLACEMENT_3D ( 'NONE', #21, #191, #39 ) ;
#165 = FACE_BOUND ( 'NONE', #11, .T. ) ;
#166 = APPROVAL_ROLE ( '' ) ;
#167 = PERSON_AND_ORGANIZATION_ROLE ( 'design_owner' ) ;
#168 = ORIENTED_EDGE ( 'NONE', *, *, #76, .F. ) ;
#169 = APPROVAL_PERSON_ORGANIZATION ( #135, #20, #166 ) ;
#170 = CARTESIAN_POINT ( 'NONE',  ( 8.889711916655850098E-15, 1.499999999999999778, 2.546114687126285858 ) ) ;
#171 = PRODUCT_RELATED_PRODUCT_CATEGORY ( 'detail', '', ( #88 ) ) ;
#172 = CIRCLE ( 'NONE', #98, 1.500000000000000000 ) ;
#173 = SECURITY_CLASSIFICATION_LEVEL ( 'unclassified' ) ;
#174 = CARTESIAN_POINT ( 'NONE',  ( 1.326762908760390423E-13, 8.998558695971078593E-33, 38.00000000000000000 ) ) ;
#175 = DIRECTION ( 'NONE',  ( -3.491481338843133355E-15, 1.224646799147353207E-16, -1.000000000000000000 ) ) ;
#176 = CALENDAR_DATE ( 2021, 22, 11 ) ;
#177 = CARTESIAN_POINT ( 'NONE',  ( 1.316288464743861212E-13, -4.616918432785521081E-15, 37.69999999999999574 ) ) ;
#178 = LOCAL_TIME ( 11, 26, 23.00000000000000000, #155 ) ;
#179 = SHAPE_DEFINITION_REPRESENTATION ( #157, #7 ) ;
#180 = CALENDAR_DATE ( 2021, 22, 11 ) ;
#181 = CIRCLE ( 'NONE', #143, 1.500000000000000000 ) ;
#182 = APPLICATION_CONTEXT ( 'configuration controlled 3d designs of mechanical parts and assemblies' ) ;
#183 = AXIS2_PLACEMENT_3D ( 'NONE', #136, #198, #83 ) ;
#184 = ORIENTED_EDGE ( 'NONE', *, *, #137, .T. ) ;
#185 = DIRECTION ( 'NONE',  ( 0.0000000000000000000, -1.000000000000000000, 0.0000000000000000000 ) ) ;
#186 = CC_DESIGN_PERSON_AND_ORGANIZATION_ASSIGNMENT ( #193, #167, ( #88 ) ) ;
#187 = PRODUCT_DEFINITION_FORMATION_WITH_SPECIFIED_SOURCE ( 'ANY', '', #88, .NOT_KNOWN. ) ;
#188 = DATE_AND_TIME ( #162, #73 ) ;
#189 =( LENGTH_UNIT ( ) NAMED_UNIT ( * ) SI_UNIT ( .MILLI., .METRE. ) );
#190 = PERSON_AND_ORGANIZATION_ROLE ( 'creator' ) ;
#191 = DIRECTION ( 'NONE',  ( -3.491481338843133355E-15, 1.224646799147353207E-16, -1.000000000000000000 ) ) ;
#192 = CC_DESIGN_PERSON_AND_ORGANIZATION_ASSIGNMENT ( #30, #78, ( #22 ) ) ;
#193 = PERSON_AND_ORGANIZATION ( #17, #6 ) ;
#194 = APPROVAL_DATE_TIME ( #41, #20 ) ;
#195 = CARTESIAN_POINT ( 'NONE',  ( 0.0000000000000000000, 0.0000000000000000000, 0.0000000000000000000 ) ) ;
#196 = PERSON_AND_ORGANIZATION ( #17, #6 ) ;
#197 = CARTESIAN_POINT ( 'NONE',  ( 8.889711916655850098E-15, 1.499999999999999778, 2.546114687126285858 ) ) ;
#198 = DIRECTION ( 'NONE',  ( -3.491481338843133355E-15, 1.224646799147353207E-16, -1.000000000000000000 ) ) ;
#199 = PLANE ( 'NONE',  #118 ) ;
#200 = DIRECTION ( 'NONE',  ( 3.491481338843133355E-15, -1.224646799147353207E-16, 1.000000000000000000 ) ) ;
#201 = UNCERTAINTY_MEASURE_WITH_UNIT (LENGTH_MEASURE( 1.000000000000000082E-05 ), #189, 'distance_accuracy_value', 'NONE');
#202 = EDGE_CURVE ( 'NONE', #16, #16, #181, .T. ) ;
#203 = CARTESIAN_POINT ( 'NONE',  ( 8.889711916655850098E-15, -3.118091201851270599E-16, 2.546114687126285858 ) ) ;
ENDSEC;
END-ISO-10303-21;
